PrimaNota.ru - самый крупный в мире бесплатный архив песенных текстов, аккордов, табулатур и нот


Zazen Boys - Potato Salad - таба, видео

Регистрация Запомнить меня
Войти через:  Facebook Google Twitter Vk Yandex Mail.ru

Zazen Boys - Potato Salad - таба, видео

Печатать
Просмотров: 74
-------------------------------------------------------------------------------
                             Potato Salad-Zazen Boys
-------------------------------------------------------------------------------
Tabbed by:chords7

Tuning:Standard

whole song pretty much revolves around Fmaj7 chord. ill only tab out each part once and it should be pretty 
easy to figure out where the parts go. most of the variation in the song actually comes in the bass and drum
parts. heavy use of playing in octaves and octave whammy pedals in this song.

       intro
e|--------------------------------------------------------------------------------|
B|--------------------------------------------------------------------------------|
G|--------------------------------------------------------------------------------|
D|--------2-2----3-3-3-3------------2------------------------2-2---3-3-3-3--------|
A|------------------------(x4)-----------x-0---3---(x8)---------------------(x4---|
E|-1-1--------------------------1-1-----------------------1-1--------- -----------|

        verse(repeat as necessary)
e|------------------------------------------------------------------------------------------|
B|------------------------------------------------------------------------------------------|
G|-------------------------...then-----------------------end with---------------------------|
D|-------2-------------------------------2--3-3-3-3---------------3-3-3-3--3-3-3-3--3-3-3-3-|
A|------------x-0---3-----------------------------------------------------------------------|
E|-1-1-------------------------------1-1----------------------------------------------------|

       Dance Bridge (repeat each part before going to next riff, just listen to song)
e|--------------------------------------------------------------------------------------------|
B|--------------------------------------------------------------------------------------------|
G|---------------------------------------------------------------3-3-3--3-3-3--2-2-2-2-2-2-2--|
D|---------------2-2-2-2-2-2-2-------------2-2-2----------------------------------------------|
A|------------------------------------------------0-0-0-0-3-3-3-------------------------------|
E|-1-1-1--1-1-1-------------------1-1-1-------------------------------------------------------|
       ending
e|---------------------------------------------------------------------------|
B|---------------------------------------------------------------------------|
G|---------------------------------------------------------------------------|
D|-----2-2--3-3-3-3------------2-2--3-3-3-3----------------------------------|
A|---------------------------------------------------------------------------|
E|-1---------------------1-1-------------------------------------------------|

************************************

| /   slide up
| \   slide down
| h   hammer-on
| p   pull-off
| ~   vibrato
| +   harmonic
| x   Mute note
| b   Bend
| pb  Pre-bend
| br  Bend release
| pbr Pre-bend release
| brb Bend release bend

************************************
Добавлено: 29.12.2015
Другие материалы по этой песне:
  • Аккорды и текст

Страница создана 29.12.2015
http://primanota.ru/zazen-boys/potato-salad-chords.htm
Привет, Гость.
Предлагаем пройти революционный курс по гитаре.
Подарок от PrimaNota.Ru, забирай!