PrimaNota.ru - самый крупный в мире бесплатный архив песенных текстов, аккордов, табулатур и нот


Zawinul, Joe - Mercy, Mercy, Mercy - таба, видео

Регистрация Запомнить меня
Войти через:  Facebook Google Twitter Vk Yandex Mail.ru

Zawinul, Joe - Mercy, Mercy, Mercy - таба, видео

Печатать
Просмотров: 108
Авторы музыки: Joe Zawinul
Авторы текста: Joe Zawinul
song: mercy, mercy, mercy
composer: josef zawinul (austrian legend in jazz and fusion music)
artist: joe zawinul with the cannonball adderly quintet
album: mercy, mercy, ... (live from ?????)
arranged by ritchie ploder, graz - austria april 2001
email: funkhead@lion.cc

arranged for fingerstyle, let the notes ring, bass-line in half-notes
(with some exeptions), u might miss some "/" and "^" signs but i had
leave them out in some places to keep it all rhythmical correct, "*" means 
octave playing of the note below the "*", maybe the melodie is not as
correct as in the real-books... i just tried to get the whole music (as
i heard and understood it) in this arrangement and i could play it with
the record, though some notes are things i came up with - i put them in
were the music allowed it (anyway it's jazz - improvise!). for form and 
harmonies listen to the record and take a look in your real book (in case
u don't have one - i guess it't a kind of blues in Bb6)

  1   2   3   4   1   2   3   4   1   2   3   4   1   2   3   4   
E ----------------------------------------------------------------|
B ----8-6---------------------1-------8-6---------------------1---|
G ----7-5----/7---5-------3-----------7-5----/7---5-------3-------|
D ----8-6-------8-5-8-8-5-1-----------8-6-------8-5-8-8-5-1-------|
A --------5-------6-----------------------5-------6-------------0-|
E 6-----------------------1--------6-----------------------1------|


  1   2   3   4   1   2   3   4   1   2   3   4   1   2   3   4   
E ----------------------------------------------------------------|
B ----8-6-------------------1---------8-6-------------------------|
G ----7-5----/7---5-------3-----------7-5----/7---5-------87------|
D ----8-6-------8-5-8-8-5-1-----------8-6-------8-5-8-8-5---8-*-*-|
A --------5-------6-----------3-0---------5-------6-------8-------|
E 6-----------------------1-------6---------------------------9-8-|

  1   2   3   4   1   2   3   4   1   2   3   4   1   2   3   4   
E ----------------------------------------------------------------|
B/3---3---4-4---6-----6---4-4--/3-----3---4-4---6-----6---4-4--/3-|
G/3---3---3-3---5-----5---3-3--/3-----3---3-3---5-----5---3-3--/3-|
D/3---3---5-5---6-----6---5-5--/3-----3---5-5---6-----6---5-5--/3-|
A ----------------------------------------------------------------|
E 6-------6-------6-------6-------6-------6-------6-------6-------|

  1   2   3   4   1   2   3   4   1   2   3   4   1   2   3   4   
E --------------------6---6-6--/6---------------------------------|
B ----3-3-3-3-4-4-6---8---8-8--/6-----3-3-3-3-4-4-6---------------|
G ----3-3-3-3-3-3-5---8---8-8--/7-----3-3-3-3-3-3-5-------------3-|
D ----3-3-3-3-5-5-7------------/8-----3-3-3-3-5-5-7---------3-5---|
A --------5---6---8---8-------8-----------5---6---8---------------|
E 6---6-------------------------------6---------------------------|

  1   2   3   4   1   2   3   4   1   2   3   4   1   2   3   4   
E --------------------------------3-----1-3---1-3-----------------|
B 1-----1-------1-3-----3-----3-6-3-----1-3---1-3-----898-6-------|
G 3-----3-----3---5-----5---5-----3-----2-3---2-3-----898-7-6-----|
D 1-----1---------3-----3---------5-----3-5---3-5---------------8-|
A 3-----3---------5-----5-------------------------------------10--|
E ----------------------------------------------------------------|

....repeat the whole thing and have fun


     
Добавлено: 16.06.2013
Другие материалы по этой песне:

Страница создана 18.06.2012
http://primanota.ru/zawinul-joe/mercy-mercy-mercy-chords.htm
Привет, Гость.
Предлагаем пройти революционный курс по гитаре.
Подарок от PrimaNota.Ru, забирай!