PrimaNota.ru - самый крупный в мире бесплатный архив песенных текстов, аккордов, табулатур и нот


Zatopeks - Death And The Hobo - таба, видео

Регистрация Запомнить меня
Войти через:  Facebook Google Twitter Vk Yandex Mail.ru

Zatopeks - Death And The Hobo - таба, видео

Печатать
Просмотров: 87
-------------------------------------------------------------------------------
                            Death and the Hobo - Zatopeks
-------------------------------------------------------------------------------
Tabbed by: squintyjoefan
E-mail: squintyjoefan@hotmail.co.uk

Track 14 from the album "Damn Fool Music"

Tuning: EADGBE (standard)

Intro/Verse
Pre-Verse
Verse
Pre-Verse
Chorus
Verse
Pre-Verse
Pre-Chorus
Chorus
Solo
Verse
Pre-Verse
Pre-Chorus
Chorus
End on B5

Intro (palm muted)

e|---------------------------------------------------------------------------|
B|---------------------------------------------------------------------------|
G|------8----9----11---------------------------------------------------------|
D|--9---8----9----11---------------------------------------------------------|
A|--9---6----7----9----------------------------------------------------------|
E|--7------------------------------------------------------------------------|
   B5  D#5  E5   F#5  Bass plays the root notes of these chords 3 times

Pre-Verse

e|---------------------------------------------------------------------------|
B|---------------------------------------------------------------------------|
G|--9~----11~--------------9~------11~---------------------------------------|
D|--9~----11~-----9--------9~------11~---------------------------------------|
A|--7~----9-~-----9--------7~------9-~---------------------------------------|
E|----------------7----------------------------------------------------------|
   E5     F#5    B5        E5     F#5
Each chord is played once and held, except for B5 which is played several times


Verse (chords)

e|---------------------------------------------------------------------------|
B|---------------------------------------------------------------------------|
G|------8---9---11-----------------------------------------------------------|
D|--9---8---9---11-----------------------------------------------------------|
A|--9---6---7---9------------------------------------------------------------|
E|--7------------------------------------------------------------------------|
   B5  D#5 E5   F#5  (Played 8 times each)

Verse (guitar lead)

e|---------------------------------------------------------------------------|
B|---------------------------------------------------------------------------|
G|---------------------------------------------------------------------------|
D|-------------------------9--9-9--9-9~--11-9-8~------------------9-11-8~----|
A|---------------9-7-6~~-----------------------------------------------------|
E|--7--7-7--7-7--------------------------------------------------------------|
                                         First ending           Second ending

Chorus ("I shouldered on")

e|---------------------------------------------------------------------------|
B|---------------------------------------------------------------------------|
G|---------11--------------------9------11-----------------------------------|
D|---9-----11-----9-------9------9------11-----------------------------------|
A|---9-----9-(x8)-9-------9------7(x8)--9(x8)--------------------------------|
E|---7(x8)--------7(x16)--7(x8)----------------------------------------------|
    B5    F#5    B5      B5      E5     F#5

e|---------------------------------------------------------------------------|
B|---------------------------------------------------------------------------|
G|----------11---9-----8------6---9------11----------------------------------|
D|---9------11---9-----8------6---9------11----------------------------------|
A|---9------9----7(x3)-6(x3)--4---7(x8)--9(x8)-------------------------------|
E|---7(x8)-------------------------------------------------------------------|


Pre-Chorus

e|-----------------0~--------------------------------------------------------|
B|-----------------0~--------------------------------------------------------|
G|-----------------0~--------------------------------------------------------|
D|--9--8---6---4---2~------4-------------------------------------------------|
A|--9--8---6---4---2~------4-------------------------------------------------|
E|--7--6---4---2---0~------2(x6)---------------------------------------------|
   B5 A#5 G#5 F#5  Emin  F#5   (hold on the Emin chord)
These chords are
played once


Solo (verse chords are played over this)

e|---------------------------------------------------------------------------|
B|--12--9----7-9-7----------7------------------------------------------------|
G|-----------------8----6-8---6---6-8-6-----3h4-4-4--3-4-3-------------------|
D|---------------------------------------------------------4-----------------|
A|---------------------------------------------------------------------------|
E|---------------------------------------------------------------------------|

e|------------------------------xxx14--14-12-12-12-----11-12-11-12-11-12-11--|
B|-----------------------xxx12-----------------------------------------------|
G|---------------------------------------------------------------------------|
D|--22222--444444------------------------------------------------------------|
A|---------------------------------------------------------------------------|
E|---------------------------------------------------------------------------|

e|---------------------------------------------------------------------------|
B|--12--------9h11-11------------7-------------------------------------------|
G|------11~------------11~---6-8---6--6-8-6----------------------------------|
D|---------------------------------------------------------------------------|
A|---------------------------------------------------------------------------|
E|---------------------------------------------------------------------------|

End song on B5

************************************

| /   slide up
| \   slide down
| h   hammer-on
| p   pull-off
| ~   vibrato
| +   harmonic
| x   Mute note
| b   Bend
| pb  Pre-bend
| br  Bend release
| pbr Pre-bend release
| brb Bend release bend

************************************
Добавлено: 28.09.2013
Другие материалы по этой песне:
  • Аккорды и текст

Страница создана 28.09.2013
http://primanota.ru/zatopeks/death-and-the-hobo-chords.htm
Привет, Гость.
Предлагаем пройти революционный курс по гитаре.
Подарок от PrimaNota.Ru, забирай!