PrimaNota.ru - самый крупный в мире бесплатный архив песенных текстов, аккордов, табулатур и нот


zatkнись - Свобода - аккорды и текст, видео

Регистрация Запомнить меня
Войти через:  Facebook Google Twitter Vk Yandex Mail.ru

zatkнись - Свобода - аккорды и текст, видео

Печатать
Просмотров: 778
Уроки эстрадного вокала в Санкт-Петербурге
Свобода
zatkнись
Проигрыш/Припев: 
D|X--------------|X--------------|X--------------|X--------------| 
A|X--------------|X--------------|X--------------|X--------------| 
F|X--------------|X--------------|X--------------|X--------------| 
C|X--------------|X--------------|X--------------|X-5-7----------| 
G|12-12-10-8-----|8-878----------|5-5-78---------|3-----7--------| 
C|0--0--0--0-----|8-8-8----------|5-5------------|3--------------| x4 

Куплет 1: 
D|X--------------------|X------------------|X--------------| 
A|X--------------------|X------------------|X--------------| 
F|X--------------------|X------------------|X--------------| 
C|X--------------------|X------------------|X--------------| 
G|12-10-8-10-12-10-8-10|8-8-10-12----------|5--------------| 
C|0--0--0--0-0--0--0--0|8-8----------------|5--------------|x4 

Куплет 2: 
D|X--------------|X--------------|X--------------|X--------------| 
A|X--------------|X--------------|X--------------|X--------------| 
F|X--------------|X--------------|X--------------|X--------------| 
C|10-------------|7--------------|7--------------|3--------------| 
G|8--------------|5--------------|5--------------|3--------------| 
C|8--------------|5--------------|0--------------|3--------------| x2 

D|X--------------|X--------------|X--------------|X--------------| 
A|X--------------|X--------------|X--------------|X--------------| 
F|X--------------|X--------------|X--------------|X--------------| 
C|10-------------|7--------------|7--------------|7--------------| 
G|8--------------|5--------------|5--------------|5--------------| 
C|8--------------|5--------------|0--------------|0--------------| x2 

Куплет 1: 
Раскрывая двери в бездну, 
Делая лишь шаг, 
Рассекает свод небесный 
Моя душа. 

Надо мною бесконечность, 
А внизу тупик. 
Я лететь хотел бы вечно, 
Но остался миг. 

Куплет 2: 
И я парю над облаками, словно эта птица 
Давно ушедших детских снов. 
Моё сознание насквозь, разрушив все границы, 
Пронзают тысячи ветров. 

Проигрыш: 

Куплет 1: 
Больше нет тревожных мыслей, 
И ушла печаль. 
Я лечу вперёд так быстро. 
Прошлого не жаль. 

Мне всегда понять хотелось 
Лишь один пустяк: 
Что с тобой мы так умело 
Делали не так? 

Куплет 2: 
И даже думать не хочу о том, что было раньше. 
Я наслаждаюсь высотой. 
Моё сознание с каждым метром от тебя всё дальше. 
Я отправляюсь за мечтой. 

Припев: 
Не надо больше звонить, 
Не надо больше вопросов. 
Меж нами тонкую нить 
Я разрезаю так просто. 

Не надо фальши и слёз, 
Впервые за эти годы 
Заместо всех твоих звёзд 
Я выбираю свободу! 

И вот когда осталось до земли одно мгновенье, 
Я вдруг подумал: "Меня ждут!". 
Но слишком поздно тормозить, и так что, к сожалению, 
Мой не раскрылся парашют... 
Добавлено: 30.07.2015
Другие материалы по этой песне:
  • Аккорды и текст

Страница создана 30.07.2015
http://primanota.ru/zatknis/svoboda-chords.htm
Привет, Гость.
Предлагаем пройти революционный курс по гитаре.
Подарок от PrimaNota.Ru, забирай!