PrimaNota.ru - самый крупный в мире бесплатный архив песенных текстов, аккордов, табулатур и нот


zatkнись - Прохожий - аккорды и текст, видео

Регистрация Запомнить меня
Войти через:  Facebook Google Twitter Vk Yandex Mail.ru

zatkнись - Прохожий - аккорды и текст, видео

Печатать
Просмотров: 218
Прохожий
zatkнись
Проигрыш: 
D|X--------------|X--------------|X--------------|X--------------| 
A|X--------------|12-12-12-12-12-|X--------------|X--------------| 
F|9--9--9--9--9--|X--------------|7--7--7--7--7--|X--------------| 
C|10-10-10-10-10-|12-12-12-12-12-|5--5--5--5--5--|5--5--5--5--5--| 
G|8--8--8--8--8--|10-10-10-10-10-|0--0--0--0--0--|5--5--5--5--5--| 
C|X--------------|X--------------|X--------------|5--5--5--5--5--| 

D|X--------------|X--------------|X--------------|X--------------| 
A|X--------------|12-12-12-12-12-|17-17-17-17-17-|15-15-15-15-15-| 
F|9--9--9--9--9--|X--------------|X--------------|X--------------| 
C|10-10-10-10-10-|12-12-12-12-12-|14-14-14-14-14-|14-14-14-14-14-| 
G|8--8--8--8--8--|10-10-10-10-10-|0--0--0--0--0--|0--0--0--0--0--| 
C|X--------------|X--------------|X--------------|X--------------| 

D|X--------------|X--------------|X--------------|X--------------| 
A|X--------------|12-12-12-12-12-|X--------------|X--------------| 
F|9--9--9--9--9--|X--------------|7--7--7--7--7--|X--------------| 
C|10-10-10-10-10-|12-12-12-12-12-|5--5--5--5--5--|5--5--5--5--5--| 
G|8--8--8--8--8--|10-10-10-10-10-|0--0--0--0--0--|5--5--5--5--5--| 
C|X--------------|X--------------|X--------------|5--5--5--5--5--| 

D|X--------------|X--------------|X--------------|X--------------| 
A|X--------------|12-12-12-12-12-|X--------------|X--------------| 
F|9--9--9--9--9--|X--------------|17-17-17-17-17-|16-16-16-16-16-| 
C|10-10-10-10-10-|12-12-12-12-12-|14-14-14-14-14-|14-14-14-14-14-| 
G|8--8--8--8--8--|10-10-10-10-10-|0--0--0--0--0--|0--0--0--0--0--| 
C|X--------------|X--------------|X--------------|X--------------| 

Куплет 1: 
D|X--------------|X--------------|X--------------|X--------------| 
A|X--------------|X--------------|X--------------|X--------------| 
F|9--9--9--10-9--|9--9--9--10-9--|X--------------|X--------------| 
C|10-10-10-10-10-|10-10-10-10-10-|7--7--7--5--7--|7--7--7--5--7--| 
G|8--8--8--8--8--|8--8--8--8--8--|0--0--0--0--0--|0--0--0--0--0--| 
C|X--------------|X--------------|X--------------|X--------------| 

D|X--------------|X--------------|X--------------|X--------------| 
A|X--------------|X--------------|X--------------|X--------------| 
F|9--9--9--10-9--|9--9--9--10-9--|X--------------|X--------------| 
C|10-10-10-10-10-|10-10-10-10-10-|2--2--2--2--2--|5--5--5--5--5--| 
G|8--8--8--8--8--|8--8--8--8--8--|0--0--0--0--0--|3--3--3--3--3--| 
C|X--------------|X--------------|X--------------|X--------------|x2 

Припев: 
D|X--------------|X--------------|X---------------| 
A|X--------------|X--------------|X---------------| 
F|X--------------|X--------------|X---------------| 
C|777777777777777|555555555555555|22--22--22--22--| 
G|555555555555555|333333333333333|00--00--00--00--| 
C|X--------------|X--------------|X---------------| 

Куплет 1: 
Прохожий, молча, гасит свет, 
И в тротуарах мокрых луж 
Свет фонарей, их тусклый блеск 
В осколках направляет путь. 

Водоворот осенних дней, 
Огни мерцающих витрин 
Затянут пустотой теней 
И звуком тысячи машин. 

Куплет 2: 
Когда пройдёт последний дождь, 
И улицы накроет снег, 
Коротких фраз молчанье, ложь 
Сползает с незнакомых век. 

Припев: 
Найти в толпе тот самый взгляд , 
Простой, но непохожий. 
И тенью ускользает прочь 
Обычный городской прохожий. 

Куплет 3: 
Прохожий, молча, гасит свет, 
Уходит мимо в темноту. 
Начнётся ночью первый снег, 
Но не найдут его к утру. 

Бездонный взгляд пустых глазниц, 
Холодных фраз немой ответ. 
В ту ночь на тень твоих ресниц 
Ложился самый первый снег. 
Добавлено: 31.12.2015
Другие материалы по этой песне:
  • Аккорды и текст

Страница создана 31.12.2015
http://primanota.ru/zatknis/proxozhii-chords.htm
Привет, Гость.
Предлагаем пройти революционный курс по гитаре.
Подарок от PrimaNota.Ru, забирай!