PrimaNota.ru - самый крупный в мире бесплатный архив песенных текстов, аккордов, табулатур и нот


zatkнись - Песня непьющего человека - аккорды и текст, видео

Регистрация Запомнить меня
Войти через:  Facebook Google Twitter Vk Yandex Mail.ru

zatkнись - Песня непьющего человека - аккорды и текст, видео

Печатать
Просмотров: 592
Песня непьющего человека
zatkнись
Проигрыш: 
D|X-------|X-------|X-------|X-------| 
A|X-------|X-------|X-------|X-------| 
F|X-------|X-------|X-------|X-------| 
C|7-9/10--|3-2/3---|5-3/5---|2-0-2---| 
G|7-------|3-------|5-------|2-------| 
C|7-------|3-------|5-------|2-------| x4 

Куплет: 
D|X-------|X-------|X-------|X-------| 
A|X-------|X-------|X-------|X-------| 
F|X-------|X-------|X-------|X-------| 
C|9-------|9-------|7-------|7---7---| 
G|7-------|5-------|5-------|3---5---| 
C|7-------|5-------|0-------|3---5---| x4 

Припев: 
D|X-------|X-------|X-------|X-------| 
A|X-------|X-------|X-------|X-------| 
F|X-------|X-------|X-------|X-------| 
C|7-------|5-------|7-------|3---5---| 
G|7-------|5-------|5-------|3---5---| 
C|7-------|5-------|0-------|3---5---| x2 

D|X-------|X-------|X-------|X-------| 
A|X-------|X-------|X-------|X-------| 
F|X-------|X-------|X-------|X-------| 
C|5-------|5-------|7-------|3---5---| 
G|3-------|5-------|7-------|3---5---| 
C|X-------|5-------|7-------|3---5---| x2 


Просыпаясь с утра, так не хочется вставать. 
Солнце бьется мне в окно. 
Разделили пополам солнце, день и ночь с луной. 
Раскрутили шар земной. 

Обесточили ветра и отправились искать, 
То что потеряли. 
Было время рассмотреть, но ушло и буду впредь, 
Верить только в то что дали. 

Припев: 
И как будто крик и как будто стон, 
Белый человек - я опять влюблен 
Раздели меня, Раздели себя, 
Раздели нас всех и от винта! 
Солнце взгядом 
Тычет мне в палатку. 
Перегаром 
я дышу так сладко. 

Верить некому. 
Одиночество. 
Моя судьба. 
Твое пророчество 
Идет война, между небом и землей. 
Что же делать? Что же делать нам с тобой? 

И как будто крик и как будто стон, 
Белый человек - я опять влюблен 
Раздели меня, Раздели себя, 
Раздели нас всех и от винта! 
Солнце взгядом 
Тычет мне в палатку. 
Перегаром 
Я дышу так сладко. 
Добавлено: 30.07.2015
Другие материалы по этой песне:
  • Аккорды и текст

Страница создана 30.07.2015
http://primanota.ru/zatknis/pesnya-nepyushhego-cheloveka-chords.htm
Привет, Гость.
Предлагаем пройти революционный курс по гитаре.
Подарок от PrimaNota.Ru, забирай!