PrimaNota.ru - самый крупный в мире бесплатный архив песенных текстов, аккордов, табулатур и нот


zatkнись - Когда-нибудь - аккорды и текст, видео

Регистрация Запомнить меня
Войти через:  Facebook Google Twitter Vk Yandex Mail.ru

zatkнись - Когда-нибудь - аккорды и текст, видео

Печатать
Просмотров: 327
Когда-нибудь
zatkнись
Проигрыш: 
D|X--------------|X--------------|X--------------|X--------------| 
A|X--------------|X--------------|X--------------|X--------------| 
F|X--------------|X--------------|X--------------|X--------------| 
C|333333333333333|555555555555555|X--------------|X-5-7----------| 
G|111111111111111|333333333333333|5-5-78---------|3-----7--------| 
C|X--------------|X--------------|0010-010-010-12|3--------------| x4 

Куплет 1: 
D|X--------------------|X------------------|X--------------|X------------------| 
A|X--------------------|X------------------|X--------------|X------------------| 
F|X--------------------|X------------------|X--------------|X------------------| 
C|0--0--0--------------|0--0--0------------|0--0--0--------|0--0--0--8--8--8--5| 
G|0--0--0--------------|0--0--0------------|0--0--0--------|0--0--0--6--6--6--3| 
C|0--0--0--------------|0--0--0------------|0--0--0--------|0--0--0------------|x4 

Куплет 2: 
D|X------------------| 
A|X------------------| 
F|X------------------| 
C|0--0--0--8--5--7--7| 
G|0--0--0--6--3--5--5| 
C|0--0--0------------||x8 

D|X--------------------|X------------------|X-----------------| 
A|X--------------------|X------------------|X-----------------| 
F|X--------------------|X------------------|X-----------------| 
C|12-12-15-14-12-------|8-8-12-10----------|5--7--7-7-10-12-12| 
G|12-12--------15------|8-8-------12-10----|5--5--5-5-8--10-10| 
C|12-12----------------|8-8----------------|5--5--5-5-8--10-10|x4 

Куплет 1: 
который год 
внутри меня 
горит огонь 
моя душа 
всем наплевать 
а я привык 
мой главный враг 
мой язык 

бездушный мир 
привык терять 
теперь мне просто 
наплевать 
весь вечер ждал 
что он придет 
но моя жизнь 
водоворот 

Проигрыш: 
когда нибудь мы все умрем 
и врядли что-нибудь поймем 

который год 
внутри меня 
горит огонь 
моя душа 
всем наплевать 
а я привык 
мой главный враг 
мой язык 

ты встанешь вместе со мной плечом к плечу х8 

Припев: 
ты так устала и хочешь домой 
новая рана и новая боль 
утром проснулся не помнишь проблем 
и задаешься вопросом зачем 
Добавлено: 23.11.2015
Вам также может быть интересно:
Другие материалы по этой песне:
  • Аккорды и текст

Страница создана 23.11.2015
http://primanota.ru/zatknis/kogda-nibud-chords.htm
Привет, Гость.
Предлагаем пройти революционный курс по гитаре.
Подарок от PrimaNota.Ru, забирай!