PrimaNota.ru - самый крупный в мире бесплатный архив песенных текстов, аккордов, табулатур и нот


Zap Zoo - Out Of Trash - аккорды и текст, видео

Регистрация Запомнить меня
Войти через:  Facebook Google Twitter Vk Yandex Mail.ru

Zap Zoo - Out Of Trash - аккорды и текст, видео

Печатать
Просмотров: 69
Out Of Trash
Zap Zoo
Song: Out Of Trash
Band: Zap Zoo
Album: In Case of Reality
Year: 2002
Tabber: beranger80@hotmail.com



Intro (0:00)

   C           B7          Em          Am
e--7---7----|--5---5----|--3---3----|--2---2----|
b----5---5--|----5---5--|----5---5--|----5---5--|
g-----------|-----------|-----------|-----------|
d-----------|-----------|-----------|-----------|
a-----------|-----------|-----------|-----------|
e-----------|-----------|-----------|-----------|

   C           B7          Em
e--7---7----|--5---5----|--7---7----|--7---7----|
b----5---5--|----5---5--|----5---5--|----5---5--|
g-----------|-----------|-----------|-----------|
d-----------|-----------|-----------|-----------|
a-----------|-----------|-----------|-----------|
e-----------|-----------|-----------|-----------|

   C           B7          Em
e--7---7----|--5---5----|--7---7----|--7---7----|
b----5---5--|----5---5--|----5---5--|----5---5--|
g-----------|-----------|-----------|-----------|
d-----------|-----------|-----------|-----------|
a-----------|-----------|-----------|-----------|
e-----------|-----------|-----------|-----------|



Verse (0:18)

C      B7           Em       Am       
This city looks too clean to me
C     B7       Em
Too clean for life
C           B7         Em             Am 
First they chased the students out of town
C          B7         Em   Am
Then they chased the whores
C          B7         Em 
Then they chased the whores



Chorus (0:46)

G             B7
Out of love, out of life
        C              B7
Out of sparkles in the eyes
     Em       Am
Out of trash
Em       Am
Full of cash

       G             B7
Out of town, out of voice
        C             B7
Out of people with a choice
       Em       Am
Out of trash
Em       Am
Full of cash



Postchorus (1:10)

C          B7         Em 
Then they chased the whores
C          B7         Em
Then they chased the whores



Verse (1:26)

C      B7           Em       Am 
No life on a sunday afternoon 
C     B7       Em
Only plastic cows
C      B7           Em       Am 
No life outside official celebration
C     B7       Em
Party pilgrims with a badge
C     B7       Em
Party pilgrims with a badge



Chorus (1:54)

G             B7
Out of love, out of life
        C              B7
Out of sparkles in the eyes
     Em       Am
Out of trash
Em       Am
Full of cash

       G             B7
Out of town, out of voice
        C             B7
Out of people with a choice
       Em       Am
Out of trash
Em       Am
Full of cash



Postchorus (2:19)

C          B7         Em
Party pilgrims with a badge
C          B7         Em
Party pilgrims with a badge



Solo (2:32)

e----------------------------------------------------------------------|
b----------------------------------------------------------------------|
g----------------------------------------------------------------------|
d----------------------------------------------12----------------------|
a---------12-----------12-----12----12---12-14-----14--12-10-12-10-----|
e--12--15-----15-12-15-----15----15--------------------------------12--|

e--------------------------------------------------|
b--------------------------------------------------|
g--------------------------------------------------|
d-----12-14-14--12-14-14--12-14-14-14-12-14-17-14--|
a--14----------------------------------------------|
e--------------------------------------------------|

e--------------------------------------------|
b--------------------------------------------|
g--------------------------------------------|
d--14-12-------------------------------------|
a--------14-12----12-12b-12------------------|
e--------------15-------------15--12-10-12h--|

e----------------------------|
b----------------------------|
g----------------------------|
d----------------------------|
a----------------------------|
e--5--7-5--3-5--5/7-5--3--0--|



Chorus (3:01)

G             B7
Out of love, out of life
        C              B7
Out of sparkles in the eyes
     Em       Am
Out of trash
Em       Am
Full of cash

       G             B7
Out of town, out of voice
        C             B7
Out of people with a choice
       Em       Am
Out of trash
Em       Am
Full of cash



Postchorus (2:19)

C          B7         Em
Party pilgrims with a badge
C          B7         Em
Party pilgrims with a badge



Outro (3:39)

C       B7    Em         Am
Last year a man tried to fly
C     B7      Em    
Jumped off a bridge
C       B7    Em         Am
He owned a pair of virtual wings
C     B7      Em   Am
And an Angel Died
C     B7      Em
And an Angel Died
Добавлено: 09.12.2015
Другие материалы по этой песне:
  • Аккорды и текст

Страница создана 09.12.2015
http://primanota.ru/zap-zoo/out-of-trash-chords.htm
Привет, Гость.
Предлагаем пройти революционный курс по гитаре.
Подарок от PrimaNota.Ru, забирай!