PrimaNota.ru - самый крупный в мире бесплатный архив песенных текстов, аккордов, табулатур и нот


Zao - Rising End The First Prophecy - таба, видео

Регистрация Запомнить меня
Войти через:  Facebook Google Twitter Vk Yandex Mail.ru

Zao - Rising End The First Prophecy - таба, видео

Печатать
Просмотров: 52
----------------------------------------------------------------------------
		The Rising End (The First Prophecy) - Zao
----------------------------------------------------------------------------
Tabbed by: gu1tar4lyf3
Email: jh__@hotmail.com

Tuning: Drop C: CGCFAD

It\'s not exact because of the mix between both guitars,
so its just my interpretation of how I would play it
with one guitar both parts at once. Its pretty close I\'d say.
Most times guitar 2 plays open power chords in the background.


INTRO:

0:00
D||------------------------------------------------------------||
A||------------------------------------------------------------|| 
F||------------------------------------------------------------||  x 4
C||------------------------------------------------------------|| 
G||------------------------------------------------------------|| 
C||--10p0h7p0h6p0h3p0h5p0h6p0h5p0h3p0--------------------------||
PM   -------------------------------- 	
(he actually picks all of the notes but its easier to pull-off)


0:08
D||------------------------------------------------------------||
A||------------------------------------------------------------|| 
F||------------------------------------------------------------||  x 8
C||------------------------------------------------------------|| 
G||------------------------------------------------------------|| 
C||--10p0h7p0h6p0h3p0h5p0h6p0h5p0h3p0--------------------------||


VERSE 1:

0:25
D||------------------------------------------------------------||
A||------------------------------------------------------------|| 
F||------------------------------------------------------------|| x 10
C||-xx-7-6-3-6-7-6-3---0 (on the last one)---------------------|| 
G||-xx-7-6-3-6-7-6-3---0---------------------------------------|| 
C||-xx-7-6-3-6-7-6-3---0---------------------------------------||

0:45
D||------------------------------------------------------------||
A||------------------------------------------------------------|| 
F||------------------------------------------------------------||  x 8
C||------------------------------------------------------------|| 
G||------------------------------------------------------------|| 
C||--10p0h7p0h6p0h3p0h5p0h6p0h5p0h3p0--------------------------||


VERSE 2:

1:00
D||------------------------------------------------------------||
A||------------------------------------------------------------|| 
F||------------------------------------------------------------|| x 7
C||-xx-7-6-3-6-7-6-3-------------------------------------------|| 
G||-xx-7-6-3-6-7-6-3-------------------------------------------|| 
C||-xx-7-6-3-6-7-6-3-------------------------------------------||

1:15
D||------------------------------------------------------------||
A||------------------------------------------------------------|| 
F||------------------------------------------------------------||
C||-xx-7-6-3-6---7---6---3---0---------------------------------|| 
G||-xx-7-6-3-6---7---6---3---0---------------------------------|| 
C||-xx-7-6-3-6---7---6---3---0---------------------------------||


CHORUS:

1: 18
D||------------------------------------------------------------||
A||------------------------------------------------------------|| 
F||------------------------------------------------------------|| x 2
C||--0-0--0-0--0--7-7-7-7-6-6--3-3-3-3-2-2--0-2-3-2-0----------|| 
G||--0-0--0-0--0--5-5-5-5-4-4--3-3-3-3-2-2--0-2-3-2-0----------|| 
C||--0-0--0-0--0--0-0-0-0-0-0--3-3-3-3-2-2--0-2-3-2-0----------||
PM   - -  - -  -                            - - - - 


(2nd guitar plays melody on F and high C string in background)
D||------------------------------------------------------------||
A||------------------------------------------------------------|| 
F||------------------------------------------------------------|| x 2
C||--0-0-(6~)-0-0--0--7-7-7-7-6-6--3-3-3-3-2-2--0-2-3-2-0------|| 
G||--0-0------0-0--0--5-5-5-5-4-4--3-3-3-3-2-2--0-2-3-2-0------|| 
C||--0-0------0-0--0--0-0-0-0-0-0--3-3-3-3-2-2--0-2-3-2-0------||
PM   - -      - -  -                            - - - - 


BRIDGE:

(the 2nd guitar just plays open power chords in the background)

1:58
D||------------------------------------------------------------||
A||------------------------------------------------------------|| 
F||-----------------|-77\\6--77/8-|-----------------------------|| 
C||--0-0--6-6---0-0-|-77\\6--77/8-|-(x 8)-----------------------|| 
G||--0-0--4-4---0-0-|-55\\4--55/6-|-----------------------------|| 
C||--0-0--------0-0--------------------------------------------||	
PM   - -        - -

2:18
D||------------------------------------------------------------||
A||------------------------------------------------------------|| 
F||------------------------------------------------------------|| 
C||--00000--|7-7|-(dont play on x 4)---------------------------|| x 4
G||--00000--|5-5|----------------------------------------------|| 
C||--00000-----------------------------------------------------||
PM   ----   


VERSE 3:

(the 2nd guitar just plays open power chords in the background
palm muted)

2:25
D||------------------------------------------------------------||
A||------------------------------------------------------------|| 
F||----77\\6--77/8----------------------------------------------|| 
C||----77\\6--77/8----------------------------------------------|| x 4
G||----55\\4--55/6----------------------------------------------|| 
C||------------------------------------------------------------||

2:32
D||------------------------------------------------------------||
A||------------------------------------------------------------|| 
F||----77\\6--88\\7----------------------------------------------|| 
C||----77\\6--88\\7--(x4)---00--00--00---0~----------------------||
G||----55\\4--66\\5---------00--00--00---0~----------------------|| 
C||-----------------------00--00--00---0~----------------------||
PM		                  --


LAST CHORUS:

2:44
D||------------------------------------------------------------||
A||------------------------------------------------------------|| 
F||------------------------------------------------------------|| x 2
C||--0-0--0-0--0--7-7-7-7-6-6--3-3-3-3-2-2--0-2-3-2-0----------|| 
G||--0-0--0-0--0--5-5-5-5-4-4--3-3-3-3-2-2--0-2-3-2-0----------|| 
C||--0-0--0-0--0--0-0-0-0-0-0--3-3-3-3-2-2--0-2-3-2-0----------||
PM   - -  - -  -                            - - - - 

3:04
D||------------------------------------------------------------||
A||------------------------------------------------------------|| 
F||------------------------------------------------------------|| x 2
C||--0-0-(6~)-0-0--0--7-7-7-7-6-6--3-3-3-3-2-2--0-2-3-2-0------|| 
G||--0-0------0-0--0--5-5-5-5-4-4--3-3-3-3-2-2--0-2-3-2-0------|| 
C||--0-0------0-0--0--0-0-0-0-0-0--3-3-3-3-2-2--0-2-3-2-0------||
PM   - -      - -  -                            - - - - 


| /  slide up
| \\  slide down
| h  hammer-on
| p  pull-off
| ~  vibrato
| x  Mute note
============================================================================
Добавлено: 09.11.2013
Другие материалы по этой песне:
  • Аккорды и текст

Страница создана 09.11.2013
http://primanota.ru/zao/rising-end-the-first-prophecy-chords.htm
Привет, Гость.
Предлагаем пройти революционный курс по гитаре.
Подарок от PrimaNota.Ru, забирай!