PrimaNota.ru - самый крупный в мире бесплатный архив песенных текстов, аккордов, табулатур и нот


Zao - Desire The End - аккорды и текст, таба, видео

Регистрация Запомнить меня
Войти через:  Facebook Google Twitter Vk Yandex Mail.ru

Zao - Desire The End - аккорды и текст, таба, видео

Печатать
Просмотров: 103
Уроки эстрадного вокала в Санкт-Петербурге
Desire The End
Zao



Date: Wed, 7 Feb 2001 14:24:09 -0500
From: Everett T Wwade 
Subject: z/zao/desire_the_end.crd

Artist: Zao
Album: Liberate to Ex Infernis(Save Yourself From Hell)
Song: Desire the End
Tabbed by Everett Wade.(send any corrections to: flamehead20@juno.com)
Drop C tuning(CGCFAD).
-This tab is my own work-

Guitar 1

D|-------------------------------------|
A|-------------------------------------|
F|-------------------------------------|
C|--0--2h3--5--3--2--3--3--3--2--2--0--|
G|-------------------------------------|
C|-------------------------------------|

Guitar 2

D|---------------------------------|
A|---------------------------------|
F|---------------------------------|
C|--7-8-7-5-7-8-7-5-7-8-7-5-7-8-7^-|
G|---------------------------------|
C|---------------------------------|


Right before he starts singing without the other guitar 1x.

D|----------------------------------------|
A|----------------------------------------|
F|-----------------------2--2-----5-------|
C|---0--2h3--5--3--2--3--3--3--2--5--0----|
G|---0-------------------3--3--2--3--0----|
C|---0-------------------3--3--2--x--0----|

	First and Second chorus.

D|-----------------------------------------|
A|-----------------------------------------|
F|------2--3--6--3--2--3--2--2-----5-------|
C|---0--------------------3--3--2--5--0----|
G|---0--------------------3--3--2--3--0----|
C|---0--------------------3--3--2--x--0----|


This is played clean. There are some variations on this in the song, just
listen to the cd
to figure them out.

   First Time:
	 
D|--------------------------------------------------------------5--5--|
A|--------------------------------------------------------------3--3--|
F|--2--2--2--2--3--3--3--3--3--5--5--5--5--5--4--4--2--2--5--5--2--2--| Guitar 1
C|--0--0--0--0--5--5--5--5--5--3--3--3--3--3--2--2--0--0--5--5--0--0--|
G|--0--0--0--0--5--5--5--5--5--3--3--3--3--3--2--2--0--0--3--3--0--0--|
C|--0--0--0--0--5--5--5--5--5--3--3--3--3--3--2--2--0--0--x--x--0--0--|

			Clean:
	 
D|-----------------------------------------------------------5--5--5--|
A|-----------------------------------------------------------3--3--3--|
F|--2--2--2--2--3--3--3--3--3--5--5--5--5--5--4--4--2--2--2--2--2--2--| Guitar 1
C|--0--0--0--0--5--5--5--5--5--3--3--3--3--3--2--2--0--0--0--0--0--0--|
G|--0--0--0--0--5--5--5--5--5--3--3--3--3--3--2--2--0--0--0--0--0--0--|
C|--0--0--0--0--5--5--5--5--5--3--3--3--3--3--2--2--0--0--0--0--0--0--|

	  D|-0h1-------0------0---|
	  A|-3---3-----5------5---|
	  F|-----2----------------|
Guitar 2  C|----------------------|
	  G|----------------------|
	  C|----------------------|

Guitar 1

D|-------------------------------------|
A|-------------------------------------|
F|-------------------------------------|
C|--0--2h3--5--3--2--3--3--3--2--2--0--|
G|-------------------------------------|
C|-------------------------------------|

Guitar 2

D|---------------------------------|
A|---------------------------------|
F|---------------------------------|
C|--7-8-7-5-7-8-7-5-7-8-7-5-7-8-7^-|
G|---------------------------------|
C|---------------------------------|


		Third chorus.

D|-----------------------------------------------|
A|-----------------------------------------------|
F|-----------------------------------------------|
C|-0*-1*-0*-0*-1*-0*-0*-0*-0*-0*-------12^-------|
G|-0*-1*-0*-0*-1*-0*-0*-0*-0*-0*-----------------|
C|-0*-1*-0*-0*-1*-0*-0*-0*-0*-0*-----------------|


				p= Pull off
				h= Hammer
				*= Palm muted
				x= Muted string
				^= Bend


Добавлено: 07.12.2013
Другие материалы по этой песне:
  • Аккорды и текст

Страница создана 25.05.2012
http://primanota.ru/zao/desire-the-end-chords.htm
Привет, Гость.
Предлагаем пройти революционный курс по гитаре.
Подарок от PrimaNota.Ru, забирай!