PrimaNota.ru - самый крупный в мире бесплатный архив песенных текстов, аккордов, табулатур и нот


Zao - As I Lay Sleepless In My Grave - таба, видео

Регистрация Запомнить меня
Войти через:  Facebook Google Twitter Vk Yandex Mail.ru

Zao - As I Lay Sleepless In My Grave - таба, видео

Печатать
Просмотров: 55
Part 1

|----------|----------|----------|----------|
|----------|----------|----------|----------|
|----------|----------|----------|----------|
|---8--8---|---8--8---|---3--3---|---3--3---| (x2)
|--5-5--5--|--6-6--6--|--5-5--5--|--5-5--5--|
|-5---5--5-|-5---5--5-|-3---3--3-|-0---0--0-|

Part 2

|----------|----------|----------|----------|
|----------|----------|----------|----------|
|----------|----------|----------|----------|
|---8--8---|---8--8---|---3--3---|---3--3---|
|--5-5--5--|--6-6--6--|--5-5--5--|--5-5--5--|
|-5---5--5-|-5---5--5-|-3---3--3-|-0---0--0-|
|
|----------|----------|----------|----------|
|----------|----------|----------|----------|
|----------|----------|----------|----------|
|-8~-------|-8~-------|-3~-------|-3~-------|
|-5~-------|-6~-------|-5~-------|-5~-------|
|-5~-------|-5~-------|-3~-------|-0~-------|


|----------|----------|----------|----------|
|----------|----------|----------|----------|
|----------|----------|----------|----------|
|---8--8---|---8--8---|---3--3---|---3--3---|
|--5-5--5--|--6-6--6--|--5-5--5--|--5-5--5--|
|-5---5--5-|-5---5--5-|-3---3--3-|-0---0--0-|
|
|----------|----------|----------|----------|
|----------|----------|----------|----------|
|----------|----------|----------|----------|
|-8~-------|-8~-------|-3~-------|-3~-------|
|-5~-------|-6~-------|-5~-------|-5~-------|
|-5~-------|-5~-------|-3~-------|-0~-------|
|
|----------|----------|----------|----------|
|----------|----------|----------|----------|
|----------|----------|----------|7~--------|
|----------|----------|----------|8~--------|
|----------|----------|----------|----------|
|----------|----------|----------|----------|

Part 3

|----------|----------|----------|----------|
|----------|----------|----------|----------|
|----------|----------|----------|----------|
|---8--8---|---8--8---|---3--3---|---3--3---|
|--5-5--5--|--6-6--6--|--5-5--5--|--5-5--5--|
|-5---5--5-|-5---5--5-|-3---3--3-|-0---0--0-|
|
|----------|----------|----------|----------|
|----------|----------|----------|----------|
|----------|----------|----------|----------|
|-8~-------|-8~-------|-3~-------|-3~-------|    (x7)          
|-5~-------|-6~-------|-5~-------|-5~-------|
|-5~-------|-5~-------|-3~-------|-0~-------|
|
|----------|----------|----------|----------|
|----------|----------|----------|----------|
|-7--7--7--|-5--5--5--|-3--3--3--|-2--2--2--|
|---8--8---|---7--7---|--33-33-3-|--33-33-3-|
|----------|----------|----------|----------|
|----------|----------|----------|----------|

End

|----------|
|----------|
|----------|
|-8~-------|
|-5~-------|
|-5~-------|
|
|----------|
|----------|
|-7~-------|
|-8~-------|
|----------|
|----------|
Добавлено: 01.07.2013
Другие материалы по этой песне:
  • Аккорды и текст

Страница создана 01.07.2013
http://primanota.ru/zao/as-i-lay-sleepless-in-my-grave-chords.htm
Привет, Гость.
Предлагаем пройти революционный курс по гитаре.
Подарок от PrimaNota.Ru, забирай!