PrimaNota.ru - самый крупный в мире бесплатный архив песенных текстов, аккордов, табулатур и нот


Zaklonisce Prepeva - Racunajte Na Nas - таба, видео

Регистрация Запомнить меня
Войти через:  Facebook Google Twitter Vk Yandex Mail.ru

Zaklonisce Prepeva - Racunajte Na Nas - таба, видео

Печатать
Просмотров: 143
intro:

e-------------------------|-------------------------|--------------------------|
h-------------------------|---------8---------------|--------------------------|
g------------7-9-9-7-10-9-|-7-9-9-9---10-9-9-7----7-|---7-7-7-9-7---7------7---|
d7-7-9-10-10--------------|--------------------10---|-7-----------9---10-9---10|
a-------------------------|-------------------------|--------------------------|
e-------------------------|-------------------------|--------------------------|

e-------------------|-------------|-
h-------------------|-------------|-
g-------------------|-------------|-
d--10-9-9-9--7-10-9-|-10h9-7----7-|-
a-------------------|--------10---|-
e-------------------|-------------|-
  a
u ime svih nas iz pedeset i neke
    C               G
za zakletvu Titu ja spevo sam stih
   d                     a
ne spominjem proslost ni bitke daleke
    G          F         E
jer rodjen sam tek posle njih

  a
u nama je sudbina buducih dana
   C              G
i neki se mozda i plase za nju
      d               a
kroz vene nam protice krv partizana
   G               F  E
i mi znamo zasto smo tu
              a
racunajte na nas

e-----------------|-----------------|-------------------------------|-
h-----------------|-----------------|-----------8-------------------|-
g-------------7-9-|-9-7-9-10-9-7----|----7-9-10---10-9-7------------|-
d--10-10-9-10-----|--------------10-|-10-----------------10-9-7-6-7-|-
a-----------------|-----------------|-------------------------------|-
e-----------------|-----------------|-------------------------------|-

         C                G
sumnjaju neki da nosi nas pogresan tok
    d               a
jer slusamo ploce i sviramo rock
    C               G
al' negde u nama je bitaka plam
  F                   E
i kazem vam sta dobro znam
              a
racunajte na nas

         C                G
sumnjaju neki da nosi nas pogresan tok
    d               a
jer slusamo ploce i sviramo rock
    C               G
al' negde u nama je bitaka plam
  F                   E
i kazem vam sta dobro znam
              a
racunajte na nas

e-----------------|-----------------|-------------------------------|-
h-----------------|-----------------|-----------8-------------------|-
g-------------7-9-|-9-7-9-10-9-7----|----7-9-10---10-9-7------------|-
d--10-10-9-10-----|--------------10-|-10-----------------10-9-7-6-7-|-
a-----------------|-----------------|-------------------------------|-
e-----------------|-----------------|-------------------------------|-

solo:

e--------------------------|-------------------------|-------------------------|
h-----------8--------------|-------------------------|----------8--------------|
g----7-9--9---10-9-9-7----7|-7-10--10-10-9-7-10-9-7-9|---7-9--9---10-9-9-7----7|
d-10-------------------10--|-------------------------|10-------------------10--|
a--------------------------|-------------------------|-------------------------|
e--------------------------|-------------------------|-------------------------|

e-----------------|--------------8h7-5---5-|-
h-----------------|--------------------8---|-
g--7-10--10-7-----|------------------------|-
d-------------7-9-|-10h9-7----7------------|-
a-----------------|--------10--------------|-
e-----------------|------------------------|-

e---15b-15b-----------|-----15--------------------|-17b-15---------------------|
h17---------15b----15-|-17b----17h15----15b-15----|--------18-17-18-17-15------|
g---------------17----|--------------17--------17-|----------------------------|
d---------------------|---------------------------|-----------------------17-17|
a---------------------|---------------------------|----------------------------|
e---------------------|---------------------------|----------------------------|

e---------------------------|---------------|-
h-----15----------15----15h-|-16h15-13---13-|-
g--17----17-14-17----17-----|----------14---|-
d---------------------------|---------------|-
a---------------------------|---------------|-
e---------------------------|---------------|-

  a
u ime svih nas iz pedeset i neke
    C                 G
za zakletvu Titu sam spevala stih
     d                    a
ne spominjem proslost ni bitke daleke
     G           F      E
jer rodjena sam posle njih

  a
u nama je sudbina buducih dana
   C              G
i neki se mozda i plase za nju
      d               a
kroz vene nam protice krv partizana
   G               F  E
i mi znamo zasto smo tu
              a
racunajte na nas

e-----------------|-----------------|-------------------------------|-
h-----------------|-----------------|-----------8-------------------|-
g-------------7-9-|-9-7-9-10-9-7----|----7-9-10---10-9-7------------|-
d--10-10-9-10-----|--------------10-|-10-----------------10-9-7-6-7-|-
a-----------------|-----------------|-------------------------------|-
e-----------------|-----------------|-------------------------------|-

         C                G
sumnjaju neki da nosi nas pogresan tok
    d               a
jer slusamo ploce i sviramo rock
    C               G
al' negde u nama je bitaka plam
  F                   E
i kazem vam sta dobro znam
              a
racunajte na nas

         C                G
sumnjaju neki da nosi nas pogresan tok
    d               a
jer slusamo ploce i sviramo rock
    C               G
al' negde u nama je bitaka plam
  F                   E
i kazem vam sta dobro znam
              a
racunajte na nas


sumnjaju neki da nosi nas pogresan tok

jer slusamo ploce i sviramo rock
    C               G
al' negde u nama je bitaka plam
  F                   E
i kazem vam sta dobro znam
              a
racunajte na nas

http://www.zaklonisceprepeva.com/
Добавлено: 27.07.2012
Другие материалы по этой песне:
  • Аккорды и текст

Страница создана 27.07.2012
http://primanota.ru/zaklonisce-prepeva/racunajte-na-nas-chords.htm
Привет, Гость.
Предлагаем пройти революционный курс по гитаре.
Подарок от PrimaNota.Ru, забирай!