PrimaNota.ru - самый крупный в мире бесплатный архив песенных текстов, аккордов, табулатур и нот


Zakk Wylde - Bleed For Me (feat. Black Label Society) - аккорды и текст, таба, драм-таба, видео

Регистрация Запомнить меня
Войти через:  Facebook Google Twitter Vk Yandex Mail.ru

Zakk Wylde - Bleed For Me (feat. Black Label Society) - аккорды и текст, таба, драм-таба, видео

Печатать
Просмотров: 136
Bleed For Me
Zakk Wylde
black label society
bleed for me


Tuning C G C F A D

Legend:
pm = palm mute
h = hammer-on
p = pull-off
x = pick scrape
T = Right hand finger tap
/ = slide
# = pinch harmonic

Intro/verse:
D|-----------------------------------------------------------------|
A|-----------------------------------------------------------------|
F|-----------------------------------------------------------------|
C|-----------------------------------------------------------------|
G|---------------------------------------------------5-3---3-------|
C|-x-0-0-0-0-0-0-0-x-0-0-0-0-0-0-0-x-0-0-0-0-0-0-0-x-----6---6-5-3-|
pm.................................................................

D|-----------------------------------------------------------|
A|-----------------------------------------------------------|
F|-----------------------------------------------------------|
C|---------------------------------------------------------3-|
G|---------------------------------------------------------3-|
C|-x-0-0-0-0-0-0-0-x-0-0-0-0-0-0-0-x-0-0-0-0-0-0-0-x-0-0-0---|
pm........................................................

D|----------------------------------------------------------------------|
A|----------------------------------------------------------------------|
F|----------------------------------------------------------------------|
C|----------------------------------------------------------------------|
G|-------------------5-3---3--------------------------------------------|
C|-x-0-0-0-0-0-0-0-0-----6---6-5-3--x-0-0-0-0-0-0-0-0-x-0-0-0-0-0-0-0-0-|

D|-----------------------|
A|-----------------------|
F|-----------------------|
C|-------------------3---|
G|-------------------3---|
C|-x-0-0-0-0-0-0-0-0-----|

D|-----------------------------------------------------------------|
A|-----------------------------------------------------------------|
F|-----------------------------------------------------------------|
C|-----------------------------------------------------------------|
G|---------------------------------------------------5-3---3-------|
C|-x-0-0-0-0-0-0-0-x-0-0-0-0-0-0-0-x-0-0-0-0-0-0-0-x-----6---6-5-3-|
pm.................................................................

D|-----------------------------------------------------------|
A|-----------------------------------------------------------|
F|-----------------------------------------------------------|
C|---------------------------------------------------------3-|
G|---------------------------------------------------------3-|
C|-x-0-0-0-0-0-0-0-x-0-0-0-0-0-0-0-x-0-0-0-0-0-0-0-x-0-0-0---|
pm........................................................

Verses:
D|----------------------------------------------------------|
A|----------------------------------------------------------|
F|----------------------------------------------------------|
C|--------------------------------------/6---4/6------------|
G|--0--0--0--5--0--0--3--0--0--6--0--0---x---x-x------------|
C|--0--0--0--5--0--0--3--0--0--6--0--0--/6---4/6------------|
pm       ...      ...      ...      ...

D|-----------------------------------------------------------------||
A|-----------------------------------------------------------------||
F|-----------------------------------------------------------------||o
C|-----------------------------------------------------------------||o 
G|---------------------------------------------------5-3---3-------||
C|-x-0-0-0-0-0-0-0-x-0-0-0-0-0-0-0-x-0-0-0-0-0-0-0-x-----6---6-5-3-||
pm.................................................................

Fill:
D|------------------------------------------|
A|--10^----------------8^----------9^-------|
F|--12^---------------10^---------11^-------|
C|-full--------------full--------full-------|
G|------------------------------------------|
C|------------------------------------------|

Chorus:
D|----------------------------------------------------------------------||
A|----------------------------------------------------------------------||
F|---------/12----10-----9/10---95-----------/12---10---9/10---95---3-||o
C|--7-p-0----x-----x-----x--x---x-x------7-p0---x----x---x--x---x-x---x-||o
G|--5---0----x-----x-----x--x---x-x------5--0---x----x---x--x---x-x---x-||
C|---------/10-----8-----7/-8---73-p0--------/10----8---7/-8---73---1-||

Guitar Solo: w/wah
D|-------------------------------------------------------------|
A|-------------------------10--12--13--10--12--13--------------|
F|-10--12--13--10--12--13--------------------------10--12--13--|
C|-------------------------------------------------------------|
G|-------------------------------------------------------------|
C|-------------------------------------------------------------|

D|----------------------------------------||
A|---------------10--12--13--10--12--13---||
F|--10--12--13----------------------------||o repeat
C|----------------------------------------||o
G|----------------------------------------||
C|----------------------------------------||

D|-----full---1/2----full-----10------15-13-10-15-13-10-----|
A|------13^----13^----13^-----------------------------------|
F|--10------------------------------------------------------|
C|----------------------------------------------------------|
G|----------------------------------------------------------|
C|----------------------------------------------------------|

D|------------------------------------------||
A|-13-12-10-13-12-10------------------------||
F|-------------------13-12-10-13-12-10------||o
C|-------------------------------------12---||o
G|------------------------------------------||
C|------------------------------------------||

D|-15-13-10-15-13-10--------------------------------------------|
A|-------------------13-12-10-13-12-10--------------------full--|
F|-------------------------------------13-12-10-13-12-10----12^-|
C|-------------------------------------------------------12-----|
G|--------------------------------------------------------------|
C|--------------------------------------------------------------|

D|---------1/2---------------10-----10-13--10--15----13----12---|
A|----------12^----12p10--10-----10---------------10----10---10-|
F|--10---10-----------------------------------------------------|
C|--------------------------------------------------------------|
G|--------------------------------------------------------------|
C|--------------------------------------------------------------|

D|-10-----------full-10--------10----------------------------|
A|----10-13^---0-13^--------10----13-10-----10--10-----------|
F|------full---0--------12^-------------12^--------12-10-12^-|
C|---------------------full------------full------------full--|
G|-----------------------------------------------------------|
C|-----------------------------------------------------------|
    T           T       T          T          T          T
D|-------------------------------------------------------------|
A|-------------------------------------------------------------|
F|--15p12p10---15^p12--17^p12p10--15^p12p10--17^p12p10--15^p12-|
C|-----------full----1-1/2--------full------full--------full---|
G|-------------------------------------------------------------|
C|-------------------------------------------------------------|
         
            T     T     T     T     T     T    T      
D|----------------------------------------------------------|
A|----------------------------------------------------------|
F|--10-12^-15-12^15-12^15-12^15-12^15-12^15-12^15-12--10----|
C|----full----all full bends-----------------------------12-|
G|----------------------------------------------------------|
C|----------------------------------------------------------|

D|---------------------|
A|--------#------------|
F|-10-10-10-12^--10----|
C|---------full--------|
G|---------------------|
C|---------------------|

Outro:
D|-----------------------------------------------------------------|
A|-----------------------------------------------------------------|
F|-----------------------------------------------------------------|
C|-----------------------------------------------------------------|
G|---------------------------------------------------5-3---3-------|
C|-x-0-0-0-0-0-0-0-x-0-0-0-0-0-0-0-x-0-0-0-0-0-0-0-x-----6---6-5-3-|
pm.................................................................

D|-----------------------------------------------------------|
A|-----------------------------------------------------------|
F|-----------------------------------------------------------|
C|---------------------------------------------------------3-|
G|---------------------------------------------------------3-|
C|-x-0-0-0-0-0-0-0-x-0-0-0-0-0-0-0-x-0-0-0-0-0-0-0-x-0-0-0---|
pm........................................................
Добавлено: 09.04.2012
Другие материалы по этой песне:

Страница создана 09.04.2012
http://primanota.ru/zakk-wylde/bleed-for-me-chords.htm
Привет, Гость.
Предлагаем пройти революционный курс по гитаре.
Подарок от PrimaNota.Ru, забирай!