PrimaNota.ru - самый крупный в мире бесплатный архив песенных текстов, аккордов, табулатур и нот


Zach Berkman - Roller Coaster - таба, видео

Регистрация Запомнить меня
Войти через:  Facebook Google Twitter Vk Yandex Mail.ru

Zach Berkman - Roller Coaster - таба, видео

Печатать
Просмотров: 66
-------------------------------------------------------------------------------
                             Roller Coaster - Zach Berkman
-------------------------------------------------------------------------------

Tuning: Standard, no capo

************************************

| /   slide up
| \   slide down

************************************


I can breath your smoke and I get your jokes, you're a roller coaster I can feel your love
e|------------------0-------------------------0-----------------------------------------------------0--------|
B|--------1-----------1-------------3-----------3-------------5-------------3-------------1------------1-----|
G|-----0-----0-----------0-------0-----0-----------0-------0-----0-------0-----0-------0-----0------------0--|
D|--3------------3-----------3/5-----------5-----------5/7-----------7\5-----------5\3-----------3-----------|
A|-----------------------------------------------------------------------------------------------------------|
E|-----------------------------------------------------------------------------------------------------------|


e|-----------------0-------------------------0-----------------------------------------|
B|--------1-----------1-------------3-----------3-------------5-------------3----------|
G|-----0-----0-----------0-------0-----0-----------0-------0-----0-------0-----0-------|
D|--3-----------3-----------3/5-----------5-----------5/7-----------7\5-----------5\3--|
A|-------------------------------------------------------------------------------------|
E|-------------------------------------------------------------------------------------|


Waking up drunk on the avenue wondering how I got to where I am
e|------------------0-------------------------0-----------------------------------------------------0--------|
B|--------1-----------1-------------3-----------3-------------5-------------3-------------1------------1-----|
G|-----0-----0-----------0-------0-----0-----------0-------0-----0-------0-----0-------0-----0------------0--|
D|--3------------3-----------3/5-----------5-----------5/7-----------7\5-----------5\3-----------3-----------|
A|-----------------------------------------------------------------------------------------------------------|
E|-----------------------------------------------------------------------------------------------------------|


Praying for a change in my attitude but what I see is what I get again, so I give in again
e|------------------0-------------------------0-----------------------------------------------------0--------|
B|--------1-----------1-------------3-----------3-------------5-------------3-------------1------------1-----|
G|-----0-----0-----------0-------0-----0-----------0-------0-----0-------0-----0-------0-----0------------0--|
D|--3------------3-----------3/5-----------5-----------5/7-----------7\5-----------5\3-----------3-----------|
A|-----------------------------------------------------------------------------------------------------------|
E|-----------------------------------------------------------------------------------------------------------|


I can breathe your smoke and I get your jokes, you're a roller coaster I can feel your love
e|------------------0-------------------------0-----------------------------------------------------0--------|
B|--------1-----------1-------------3-----------3-------------5-------------3-------------1------------1-----|
G|-----0-----0-----------0-------0-----0-----------0-------0-----0-------0-----0-------0-----0------------0--|
D|--3------------3-----------3/5-----------5-----------5/7-----------7\5-----------5\3-----------3-----------|
A|-----------------------------------------------------------------------------------------------------------|
E|-----------------------------------------------------------------------------------------------------------|

I can breathe your smoke and I get your jokes, you're a roller coaster I can feel your love
e|------------------0-------------------------0-----------------------------------------------------0--------|
B|--------1-----------1-------------3-----------3-------------5-------------3-------------1------------1-----|
G|-----0-----0-----------0-------0-----0-----------0-------0-----0-------0-----0-------0-----0------------0--|
D|--3------------3-----------3/5-----------5-----------5/7-----------7\5-----------5\3-----------3-----------|
A|-----------------------------------------------------------------------------------------------------------|
E|-----------------------------------------------------------------------------------------------------------|


Children in the park with their coats and gloves are a way to see the winter come again
e|------------------0-------------------------0---------------------------0-------------------------0--------|
B|--------1-----------1-------------3-----------3-------------5-------------3-------------1------------1-----|
G|-----0-----0-----------0-------0-----0-----------0-------0-----0-------------0-------0-----0------------0--|
D|--3------------3-----------3/5-----------5-----------5/7-----------7\5-----------5\3-----------3-----------|
A|-----------------------------------------------------------------------------------------------------------|
E|-----------------------------------------------------------------------------------------------------------|

Shuffling my feet through the falling dark and I pretend this isn't happening, but this is happening
e|------------------0-------------------------0---------------------------0-------------------------0--------|
B|--------1-----------1-------------3-----------3-------------5-------------3-------------1------------1-----|
G|-----0-----0-----------0-------0-----0-----------0-------0-----0-------------0-------0-----0------------0--|
D|--3------------3-----------3/5-----------5-----------5/7-----------7\5-----------5\3-----------3-----------|
A|-----------------------------------------------------------------------------------------------------------|
E|-----------------------------------------------------------------------------------------------------------|


I can breathe your smoke and I get your jokes, you're a roller coaster I can feel your love
e|------------------0-------------------------0-----------------------------------------------------0--------|
B|--------1-----------1-------------3-----------3-------------5-------------3-------------1------------1-----|
G|-----0-----0-----------0-------0-----0-----------0-------0-----0-------0-----0-------0-----0------------0--|
D|--3------------3-----------3/5-----------5-----------5/7-----------7\5-----------5\3-----------3-----------|
A|-----------------------------------------------------------------------------------------------------------|
E|-----------------------------------------------------------------------------------------------------------|


~~~~~~~~~~~~~~~~~~~~~~~~~~~~~~~~~~~~~~~~~~~~~~~~~~~~~~~~~~~~~~~~~~~~~~~~~~~~~

The same pattern continues to the end of the song
Most of the song is the same, only part that's different is the second verse

~~~~~~~~~~~~~~~~~~~~~~~~~~~~~~~~~~~~~~~~~~~~~~~~~~~~~~~~~~~~~~~~~~~~~~~~~~~~~
Добавлено: 14.12.2015
Вам также может быть интересно:
Другие материалы по этой песне:
  • Аккорды и текст

Страница создана 14.12.2015
http://primanota.ru/zach-berkman/roller-coaster-chords.htm
Привет, Гость.
Предлагаем пройти революционный курс по гитаре.
Подарок от PrimaNota.Ru, забирай!