PrimaNota.ru - самый крупный в мире бесплатный архив песенных текстов, аккордов, табулатур и нот


Zach Berkman - Drift Away - таба

Регистрация Запомнить меня
Войти через:  Facebook Google Twitter Vk Yandex Mail.ru

Zach Berkman - Drift Away - таба

Печатать
Просмотров: 81
Уроки эстрадного вокала в Санкт-Петербурге
NO CAPO

    Am7  Fmaj7   C   G 
e|---0-----0-----0---x--|
B|---1-----1-----1---x--|
G|---0-----2-----0---0--|
D|---2-----3-----2---0--|
A|---0-----x-----3---2--|
E|---x-----x-----x---3--|


INTRO
     Fmaj7         Am7        G       C   G     Fmaj7        Am7         G
 e|--------------------------------|--0---x--|--------------------------------|
 B|------------1-------------------|--1---x--|------------1-------------------|
 G|-----0--2------------0----------|--0---0--|-----0--2------------0----------|
 D|--3---------------2-----0-------|--2---0--|--3---------------2-----0-------|
 A|---------------0----------------|--3---2--|---------------0----------------|
 E|---------------------------3----|--0---3--|---------------------------3----|


VERSE

    Fmaj7       Am7         G         C      G
      I drift away in my mind, and I want to go where
 e|---------------------------------------|--0---x--|
 B|------------1--------------------------|--1---x--|
 G|-----0--2------------0-----------0-----|--0---0--|
 D|--3---------------2-----0-----0-----0--|--2---0--|   
 A|---------------0-----------------------|--3---2--|
 E|---------------------------3-----------|--0---3--|

    Fmaj7           Am7         G              C        G
      All of these feelings provide me with a place to call my own
 e|---------------------------------------|--0---x--|
 B|------------1--------------------------|--1---x--|
 G|-----0--2------------0-----------0-----|--0---0--|
 D|--3---------------2-----0-----0-----0--|--2---0--|   
 A|---------------0-----------------------|--3---2--|
 E|---------------------------3-----------|--0---3--|

    Fmaj7       Am7      G               C   G
      I hope wherever I end up, I don't end up alone
 e|---------------------------------------|--0---x--|
 B|------------1--------------------------|--1---x--|
 G|-----0--2------------0-----------0-----|--0---0--|
 D|--3---------------2-----0-----0-----0--|--2---0--|   
 A|---------------0-----------------------|--3---2--|
 E|---------------------------3-----------|--0---3--|

    Fmaj7       Am7         G         
                                           And I've spent
 e|---------------------------------------------------|
 B|------------1--------------------------------------|
 G|-----0--2------------0-----------0-----------0-----|
 D|--3---------------2-----0-----0-----0-----0-----0--|  
 A|---------------0-----------------------------------|
 E|---------------------------3-----------3-----------|

    Fmaj7         Am7      G             C    G
       A hundred seasons alive learning how to grow up
 e|---------------------------------------|--0---x--|
 B|------------1--------------------------|--1---x--|
 G|-----0--2------------0-----------0-----|--0---0--|
 D|--3---------------2-----0-----0-----0--|--2---0--|   
 A|---------------0-----------------------|--3---2--|
 E|---------------------------3-----------|--0---3--|

    Fmaj7       Am7         G          C       G
      I know a lot of it's trying hard, showing up
 e|---------------------------------------|--0---x--|
 B|------------1--------------------------|--1---x--|
 G|-----0--2------------0-----------0-----|--0---0--|
 D|--3---------------2-----0-----0-----0--|--2---0--|   
 A|---------------0-----------------------|--3---2--|
 E|---------------------------3-----------|--0---3--|

    Fmaj7        Am7         G              C     G
      I hope the future provides me with a place that I call home
 e|---------------------------------------|--0---x--|
 B|------------1--------------------------|--1---x--|
 G|-----0--2------------0-----------0-----|--0---0--|
 D|--3---------------2-----0-----0-----0--|--2---0--|   
 A|---------------0-----------------------|--3---2--|
 E|---------------------------3-----------|--0---3--|

    Fmaj7         Am7         G
 e|---------------------------------------------------|
 B|------------1--------------------------------------|
 G|-----0--2------------0-----------0-----------0-----|
 D|--3---------------2-----0-----0-----0-----0-----0--|  
 A|---------------0-----------------------------------|
 E|---------------------------3-----------3-----------|

CHORUS

     Fmaj7                                   G                      C       G
So what's the obsession? What's it gonna be? All of these questions, coming back to me
 e|--------------------------------------------------|
 B|--------1-----------1-----------1-----------------|
 G|-----0-----0-----0-----0-----0-----0-----0-----0--|
 D|--3-----------3-----------------------------------|
 A|--------------------------------------3-----------|
 E|--------------------------3-----------------3-----|

      Fmaj7                    Am7
         Is this everything I hoped? Say yes so I don't have to say
 e|--------------------------------------------------|
 B|--------1-----------1-----------0-----------0-----|
 G|-----0-----0-----0-----0-----0-----0-----0-----0--|
 D|--3-----------3-----------2-----------2-----------|
 A|--------------------------------------------------|
 E|--------------------------------------------------|
   
Fmaj7     Am7               G               
     Nooooooo                 Say yes so I don't have to say
 e|---------------------------------------------------|
 B|------------1--------------------------------------|
 G|-----0--2------------0-----------0-----------0-----|
 D|--3---------------2-----0-----0-----0-----0-----0--|  
 A|---------------0-----------------------------------|
 E|---------------------------3-----------3-----------|

 Fmaj7   Am7  G
     Nooooooo
 e|------------------------------|
 B|------------1-----------------|
 G|-----0--2------------0--------|
 D|--3---------------2-----0-----|  
 A|---------------0--------------|
 E|---------------------------3--|

VERSE

    Fmaj7     Am7            G              C      G
      I wanna go out with a girl and maybe we'll go steady
 e|---------------------------------------|--0---x--|
 B|------------1--------------------------|--1---x--|
 G|-----0--2------------0-----------0-----|--0---0--|
 D|--3---------------2-----0-----0-----0--|--2---0--|   
 A|---------------0-----------------------|--3---2--|
 E|---------------------------3-----------|--0---3--|

    Fmaj7        Am7               G                   C        G
      I wanna go out into the world and meet someone I don't already know
 e|---------------------------------------|--0---x--|
 B|------------1--------------------------|--1---x--|
 G|-----0--2------------0-----------0-----|--0---0--|
 D|--3---------------2-----0-----0-----0--|--2---0--|   
 A|---------------0-----------------------|--3---2--|
 E|---------------------------3-----------|--0---3--|

    Fmaj7                Am7                      G                   C    G
      'cause it's been a while since I've looked around and seen the room begin to glow
 e|---------------------------------------|--0---x--|
 B|------------1--------------------------|--1---x--|
 G|-----0--2------------0-----------0-----|--0---0--|
 D|--3---------------2-----0-----0-----0--|--2---0--|   
 A|---------------0-----------------------|--3---2--|
 E|---------------------------3-----------|--0---3--|

     Fmaj7        Am7         G         
 e|---------------------------------------------------|
 B|------------1--------------------------------------|
 G|-----0--2------------0-----------0-----------0-----|
 D|--3---------------2-----0-----0-----0-----0-----0--|  
 A|---------------0-----------------------------------|
 E|---------------------------3-----------3-----------|

    Fmaj7                Am7                         G             C           G
      I want a reason to try on a love that I would die for and I don't wanna waste it
 e|---------------------------------------|--0---x--|
 B|------------1--------------------------|--1---x--|
 G|-----0--2------------0-----------0-----|--0---0--|
 D|--3---------------2-----0-----0-----0--|--2---0--|   
 A|---------------0-----------------------|--3---2--|
 E|---------------------------3-----------|--0---3--|

    Fmaj7       Am7                 G                 C                  G
       I wanna soar to impossible heights and get so close that I could taste the sky
 e|---------------------------------------|--0---x--|
 B|------------1--------------------------|--1---x--|
 G|-----0--2------------0-----------0-----|--0---0--|
 D|--3---------------2-----0-----0-----0--|--2---0--|   
 A|---------------0-----------------------|--3---2--|
 E|---------------------------3-----------|--0---3--|

    Fmaj7        Am7       G              C             G
      I hope wherever I end up, it's with someone that treats me right
 e|---------------------------------------|--0---x--|
 B|------------1--------------------------|--1---x--|
 G|-----0--2------------0-----------0-----|--0---0--|
 D|--3---------------2-----0-----0-----0--|--2---0--|   
 A|---------------0-----------------------|--3---2--|
 E|---------------------------3-----------|--0---3--|

    Fmaj7         Am7         G
 e|---------------------------------------------------|
 B|------------1--------------------------------------|
 G|-----0--2------------0-----------0-----------0-----|
 D|--3---------------2-----0-----0-----0-----0-----0--|  
 A|---------------0-----------------------------------|
 E|---------------------------3-----------3-----------|

CHORUS

     Fmaj7                                   G                      C       G
So what's the obsession? What's it gonna be? All of these questions, coming back to me
 e|--------------------------------------------------|
 B|--------1-----------1-----------1-----------------|
 G|-----0-----0-----0-----0-----0-----0-----0-----0--|
 D|--3-----------3-----------------------------------|
 A|--------------------------------------3-----------|
 E|--------------------------3-----------------3-----|

      Fmaj7                    G
         Is this everything I hoped? Say yes so I don't have to say
 e|--------------------------------------------------|
 B|--------1-----------1-----------1-----------1-----|
 G|-----0-----0-----0-----0-----0-----0-----0-----0--|
 D|--3-----------3-----------------------------------|
 A|--------------------------------------------------|
 E|--------------------------3-----------3-----------|

Fmaj7     Am7               G               
     Nooooooo                 Say yes so I don't have to say
 e|---------------------------------------------------|
 B|--------1------------------------------------------|
 G|-----0-----0---------0-----------0-----------0-----|
 D|--3---------------2-----0-----0-----0-----0-----0--|  
 A|---------------0-----------------------------------|
 E|---------------------------3-----------3-----------|

Fmaj7     Am7               G               
     Nooooooo                 Say yes so I don't have to say
 e|---------------------------------------------------|
 B|--------1------------------------------------------|
 G|-----0-----0---------0-----------0-----------0-----|
 D|--3---------------2-----0-----0-----0-----0-----0--|  
 A|---------------0-----------------------------------|
 E|---------------------------3-----------3-----------|

Fmaj7     Am7               G               
     Nooooooo                 
 e|---------------------------------------------------|
 B|--------1------------------------------------------|
 G|-----0-----0---------0-----------0-----------0-----|
 D|--3---------------2-----0-----0-----0-----0-----0--|  
 A|---------------0-----------------------------------|
 E|---------------------------3-----------3-----------|

     Fmaj7        Am7         G
 e|-------------------------------------------------------|
 B|--------1----------------------------------------------|
 G|-----0-----0---------0-----------0---------------------|
 D|--3---------------2-----0-----0-----0------------------|
 A|---------------0---------------------------------------|
 E|---------------------------3-----------3-3-3-3-3-3-3-3-|

BRIDGE

Fmaj7                              C
  Every hand with a candle in it flickers in the dark but it seems to grow
Am7                                G
  When you've got others with it gathering light in a steady glow
Fmaj7                              C
  Every hand with a candle in it flickers in the dark but it seems to grow
Am7                                G                   -stop
  When you've got others with it gathering light in a steady glow

CHORUS

    Fmaj7                    G
     Oooooooo                 Say yes so you don't have to say
 e|---------------------------------------------------|
 B|--------1-------------1----------------------------|
 G|-----0-----0-------0-----0-------0-----------0-----|
 D|------------------------------0-----0-----0-----0--|  
 A|--3-------------3----------------------------------|
 E|---------------------------3-----------3-----------|

   Fmaj7  Am7                G
     Nooooooo                 Say yes so you don't have to say
 e|---------------------------------------------------|
 B|------------1--------------------------------------|
 G|-----0--2------------0-----------0-----------0-----|
 D|--3---------------2-----0-----0-----0-----0-----0--|  
 A|---------------0-----------------------------------|
 E|---------------------------3-----------3-----------|

   Fmaj7  Am7                G
     Nooooooo                 Say yes so you don't have to say
 e|---------------------------------------------------|
 B|------------1--------------------------------------|
 G|-----0--2------------0-----------0-----------0-----|
 D|--3---------------2-----0-----0-----0-----0-----0--|  
 A|---------------0-----------------------------------|
 E|---------------------------3-----------3-----------|

   Fmaj7  Am7                G
     Nooooooo                      So you don't have to say
 e|---------------------------x-x-x-x-x-x-x-x---|
 B|------------1--------------x-x-x-x-x-x-x-x---|
 G|-----0--2------------0-----0-0-0-0-0-0-0-0---|
 D|--3---------------2-----0--0-0-0-0-0-0-0-0---|  
 A|---------------0-----------2-2-2-2-2-2-2-2---|
 E|---------------------------3-3-3-3-3-3-3-3---|

Fmaj7  Am7  G            C        G
   Noooooo, say yes so you don't have to say
Fmaj7  Am7  G          Fmaj7       C  
   Noooooo          e|---0----0----0---|
                    B|---1----1----1---|
                    G|---2----0----0---|
                    D|---3----3----2---|  
                    A|---x----x----3---|
                    E|---x----x----x---|
Добавлено: 14.12.2015
Другие материалы по этой песне:
  • Аккорды и текст

Страница создана 14.12.2015
http://primanota.ru/zach-berkman/drift-away-chords.htm
Привет, Гость.
Предлагаем пройти революционный курс по гитаре.
Подарок от PrimaNota.Ru, забирай!