PrimaNota.ru - самый крупный в мире бесплатный архив песенных текстов, аккордов, табулатур и нот


Yuyu - Mon Petit Garcon - таба, видео

Регистрация Запомнить меня
Войти через:  Facebook Google Twitter Vk Yandex Mail.ru

Yuyu - Mon Petit Garcon - таба, видео

Печатать
Просмотров: 74
		   --------

MON PETIT GARCON   -  YUYU

Transcribed by GrD

Gtr I (E A D G B E) -


  Q=152
 4/4
  Gtr I
  W          W          W           Q   E E E E E  E
|----------|----------|----------|-10----------------|
|----------|----------|----------|----------------17-|
|----------|----------|----------|-10-------------17-|
|----------|----------|----------|------------5---17-|
|----------|----------|----------|-----10----------0-|
|----------|----------|----------|----------3---4----|


   +E   E E  E  +H        Q   E E E E E  E
|-----------11-(11)----|-10----------------|
|-(17)------13-(13)----|-11-------------17-|
|-(17)------15-(15)----|-10-------------17-|
|-(17)-------0--(0)----|------------5---17-|
|--(0)-----------------|-----10----------0-|
|------17--------------|----------3---4----|


   +E   E E  E  +H        Q   E E E E E E
|-----------11-(11)----|-10-------------8--|
|-(17)------11-(11)----|-11-------------8--|
|-(17)------11-(11)----|--8-------------9--|
|-(17)-------0--(0)----|-----10------------|
|--(0)-----------------|----------------0--|
|------17--------------|--8-------8-7-6----|


  +E  E E  E  +H        Q   E E E E E  E
|-(8)-----13-(13)----|-10----------------|
|-(8)-----13-(13)----|-11-------------16-|
|-(9)-----11-(11)----|-10-------------17-|
|--------------------|------------5---17-|
|-(0)----------------|-----10----------0-|
|-----8-9-10-(10)----|----------3---4----|


   +E   E E  E  +H        Q   E E E E E  E
|----------------------|--------------------|
|-(16)------15-(15)----|-15-------------17--|
|-(17)------17-(17)----|-15-------------17--|
|-(17)-------0--(0)----|-15---------5---17--|
|--(0)------17-(17)----|-----------------0--|
|------17--------------|-----15---3---4-----|


   +E   E E  E  +H        Q   E E E E E  E
|-----------11-(11)----|-10----------------|
|-(17)------13-(13)----|----------------17-|
|-(17)------15-(15)----|----------------17-|
|-(17)-------0--(0)----|------------5---17-|
|--(0)-----------------|-----10----------0-|
|------17--------------|----------3---4----|


   +E   E E  E  +H        Q   E E E E E E
|-----------11-(11)----|-10-------------8--|
|-(17)------11-(11)----|--8-------------8--|
|-(17)------11-(11)----|--8-------------9--|
|-(17)-------0--(0)----|-----10------------|
|--(0)-----------------|----------------0--|
|------17--------------|--8-------8-7-6----|


  +E  E E  E  +H       Q  E E E E E  E
|-(8)-----13-(13)----|-6---------------|
|-(8)-----13-(13)----|--------------16-|
|-(9)-----11-(11)----|--------------17-|
|--------------------|----5-----5---17-|
|-(0)----------------|---------------0-|
|-----8-9-10-(10)----|-3------3---4----|


   +E   E E  E  +H        Q   E E E E E  E
|----------------------|--------------------|
|-(16)------15-(15)----|-15-------------16--|
|-(17)------17-(17)----|-15-------------17--|
|-(17)------16-(16)----|-15---------5---17--|
|--(0)------17-(17)----|-----------------0--|
|------17--------------|-----15---3---4-----|


   +E   E E  E  +H        Q   E E E E E  E
|----------------------|-------------------|
|-(16)------15-(15)----|-15-------------16-|
|-(17)------17-(17)----|----------------17-|
|-(17)------16-(16)----|------------5---17-|
|--(0)------17-(17)----|-----------------0-|
|------17--------------|-----15---3---4----|


   +E   E E  E  +H       Q  E E E E E  E
|----------------------|-6----------------|
|-(16)------15-(15)----|--------------16--|
|-(17)------17-(17)----|--------------17--|
|-(17)-----------------|----5-----5---17--|
|--(0)-----------------|---------------0--|
|------17--------------|-3------3---4-----|


   +E   E E  E  +H       W          W          W
|----------------------|----------|----------|------|
|-(16)------13-(13)----|----------|----------|------|
|-(17)------15-(15)----|----------|----------|------|
|-(17)------16-(16)----|----------|----------|------|
|--(0)-----------------|----------|----------|------|
|------17--------------|----------|----------|------|


  W          W          +W           W
|----------|----------|------------|------|
|----------|-3--------|-(3)--------|-3----|
|----------|-3--------|-(3)--------|-5----|
|----------|-5--------|-(5)--------|-7----|
|----------|-6--------|-(6)--------|------|
|----------|----------|------------|------|


  E E E E Q.   E   W          +W           W
|----------------|----------|------------|------|
|-3-3---3-3------|-3--------|-(3)--------|-3----|
|----------------|-3--------|-(3)--------|-3----|
|----------------|-3--------|-(3)--------|-3----|
|----------------|----------|------------|------|
|----------------|----------|------------|------|


  W          W          +W           H    +H
|----------|-1--------|-(1)--------|-3----(3)----|
|-3--------|-2--------|-(2)--------|-3----(3)----|
|-3--------|-3--------|-(3)--------|-5----(5)----|
|-5--------|----------|------------|-------------|

|----------|----------|------------|-------------|
|----------|----------|------------|-------------|


  W          H    +Q.   E   Q  E E +H       W
|----------|-3----(3)-----|---------------|------|
|-6--------|-3----(3)-----|-6----6-(6)----|------|
|-5--------|-3----(3)-----|-5----5-(5)----|------|
|-4--------|--------------|-4----4-(4)----|------|
|----------|--------------|---------------|------|
|----------|--------------|---------------|------|


  H    E E E  E    +S  S  E E  E  +H
|---------------|------------------------|
|-6------6------|------------------------|
|-7------7----7-|--(7)----7---10-(10)----|
|-8------8---10-|-(10)---10---10-(10)----|
|------------10-|-(10)---10----9--(9)----|
|---------------|------------------------|


   H    E  E E  E    +S  S  E E  E  +H
|-----------------|------------------------|
|-----------------|------------------------|
|-10------10------|------------------------|
|-12------12---12-|-(12)---12---15-(15)----|
|-13------13---15-|-(15)---15---15-(15)----|
|--------------15-|-(15)---15---14-(14)----|


   H     +Q    +S  S  E    +Q.    E  +H        H     +H        Q.    E  +H
|-----------------------|--------13-(13)----|---------------|---------------
---|
|--------------------10-|-(10)---13-(13)----|-10----(10)----|---------------
---|
|--------------------12-|-(12)---11-(11)----|-10----(10)----|---------------
---|
|-12----(12)--(12)---10-|-(10)--------------|-12----(12)----|-12----15-(15)-
---|
|-13----(13)--(13)------|-------------------|-13----(13)----|-15----15-(15)-
---|
|-15----(15)--(15)------|-------------------|---------------|-15----14-(14)-
---|


   H    E  E E  E    +Q    +S  S  E  +Q    +S  S E
|--------------12-|-(12)--(12)---------------------|
|-10------10---13-|-(13)--(13)---13-(13)--(13)-----|
|-10------10---12-|-(12)--(12)---15-(15)--(15)-----|
|-12------12------|--------------16-(16)--(16)-----|
|-13------13------|--------------------------------|
|-----------------|--------------------------------|


   H     +E   S S E  E    +Q    +S  S  E  +H
|----------------------|-------------------------|
|-15----(15)-15-----17-|-(17)--(17)---16-(16)----|
|-15----(15)-15-----17-|-(17)--(17)---17-(17)----|
|-19----(19)-15-----17-|-(17)--(17)---16-(16)----|
|----------------------|-------------------------|
|----------------------|-------------------------|


   H    E  S S  S S  S S    S S  S S E  S S E  E Q     H.      E  E
|------------------------|--------------------------|--6---------11--|
|-15---------------------|--------------------------|-10---------13--|
|-15------19---17--------|-17----------17-----19----|-10---------12--|
|-17----------------20---|------20------------------|----------------|
|-18------17-------------|--------------------17----|----------------|
|--------------20---18---|-20---18-----20-----------|----------------|


   +Q    +S  S  E  +Q.   E    H     +Q    +S  S  E
|-(11)--(11)---10-(10)-----|-10----(10)--(10)---11-|
|-(13)--(13)---13-(13)-----|-11----(11)--(11)---13-|
|-(12)--(12)---11-(11)-----|-14----(14)--(14)---12-|
|--------------------------|-----------------------|
|--------------------------|-----------------------|
|--------------------------|-----------------------|


   +Q    +S  S  E  +H        H.      E  E
|-(11)--(11)---10-(10)----|------------11-|
|-(13)--(13)---13-(13)----|-11---------13-|
|-(12)--(12)---11-(11)----|-14---------12-|
|-------------------------|-15------------|
|-------------------------|---------------|
|-------------------------|---------------|


   +Q    +S  S  E  +Q.   E    H     +Q    +S  S  E
|-(11)--(11)---10-(10)-----|-10----(10)--(10)---11-|
|-(13)--(13)---13-(13)-----|-10----(10)--(10)---13-|
|-(12)--(12)---11-(11)-----|-10----(10)--(10)---12-|
|--------------------------|-----------------------|
|--------------------------|-----------------------|
|--------------------------|-----------------------|


   +Q    +S  S  E  +H       W
|-(11)--(11)---10-(10)----|------|
|-(13)--(13)---13-(13)----|------|
|-(12)--(12)---11-(11)----|------|
|-------------------------|------|
|-------------------------|------|
|-------------------------|------|


  W          W          W          W
|----------|----------|----------|------|
|----------|----------|----------|-3----|
|----------|----------|----------|-3----|
|----------|----------|----------|-5----|
|----------|----------|----------|-6----|
|----------|----------|----------|------|


  +W           W          E E E E Q.   E   W
|------------|----------|----------------|------|
|-(3)--------|-3--------|-3-3---3-3------|-3----|
|-(3)--------|-5--------|----------------|-3----|
|-(5)--------|-7--------|----------------|-3----|
|-(6)--------|----------|----------------|------|
|------------|----------|----------------|------|


  +W           W          W          W
|------------|----------|----------|-1----|
|-(3)--------|-3--------|-3--------|-2----|
|-(3)--------|-3--------|-3--------|-3----|
|-(3)--------|-3--------|-5--------|------|
|------------|----------|----------|------|
|------------|----------|----------|------|


  +W           H    +H       W          H    +Q.   E
|-(1)--------|-3----(3)----|----------|-3----(3)------|
|-(2)--------|-3----(3)----|-6--------|-4----(4)------|
|-(3)--------|-5----(5)----|-5--------|-7----(7)------|
|------------|-------------|-4--------|---------------|
|------------|-------------|----------|---------------|
|------------|-------------|----------|---------------|


  Q  E E +H       W          H    E E E  E    +S  S  E E  E  +H
|---------------|----------|---------------|------------------------|
|-6----6-(6)----|----------|-6------6------|------------------------|
|-5----5-(5)----|----------|-7------7----7-|--(7)----7---10-(10)----|
|-4----4-(4)----|----------|-8------8---10-|-(10)---10---10-(10)----|
|---------------|----------|------------10-|-(10)---10----9--(9)----|
|---------------|----------|---------------|------------------------|


   H    E  E E  E    +S  S  E E  E  +H
|-----------------|------------------------|
|-----------------|------------------------|
|-10------10------|------------------------|
|-12------12---12-|-(12)---12---15-(15)----|
|-13------13---15-|-(15)---15---15-(15)----|
|--------------15-|-(15)---15---14-(14)----|


   H     +Q    +S  S  E    +Q.    E  +H
|-----------------------|--------13-(13)----|
|--------------------10-|-(10)---13-(13)----|
|--------------------12-|-(12)---11-(11)----|
|-12----(12)--(12)---10-|-(10)--------------|
|-13----(13)--(13)------|-------------------|
|-15----(15)--(15)------|-------------------|


   H     +H        Q.    E  +H
|---------------|------------------|
|-10----(10)----|------------------|
|-10----(10)----|------------------|
|-12----(12)----|-12----15-(15)----|
|-13----(13)----|-15----15-(15)----|
|---------------|-15----14-(14)----|


   H    E  E E  E    +Q    +S  S  E  +Q    +S  S E
|--------------12-|-(12)--(12)----------------------|
|-10------10---13-|-(13)--(13)---13-(13)--(13)------|
|-10------10---12-|-(12)--(12)---15-(15)--(15)------|
|-12------12------|--------------16-(16)--(16)------|
|-13------13------|---------------------------------|
|-----------------|---------------------------------|


   H     +E   S S E  E    +Q    +S  S  E  +H        H    E  S S  S S  S S
|----------------------|-------------------------|------------------------|
|-15----(15)-15-----17-|-(17)--(17)---16-(16)----|-15---------------------|
|-15----(15)-15-----17-|-(17)--(17)---17-(17)----|-15------19---17--------|
|-19----(19)-19-----17-|-(17)--(17)---16-(16)----|-17----------------20---|
|----------------------|-------------------------|-18------17-------------|
|----------------------|-------------------------|--------------20---18---|


   S S  S S E  S S E  E Q     H.      E  E
|--------------------------|---------------|
|--------------------------|-15---------16-|
|-17----------17-----19----|-15---------17-|
|------20------------------|-15---------17-|
|--------------------17----|---------------|
|-20---18-----20-----------|---------------|


   +Q    +S  S  E  +Q.   E    H     +Q    +S  S  E
|--------------------------|------------------------|
|-(16)--(16)---15-(15)-----|-15----(15)--(15)---16--|
|-(17)--(17)---17-(17)-----|-15----(15)--(15)---17--|
|-(17)--(17)---16-(16)-----|-15----(15)--(15)---17--|
|--------------------------|------------------------|
|--------------------------|------------------------|


   +Q    +S  S  E  +H        H.      E  E
|-------------------------|---------------|
|-(16)--(16)---15-(15)----|-15---------16-|
|-(17)--(17)---17-(17)----|-15---------17-|
|-(17)--(17)---16-(16)----|-15---------17-|
|-------------------------|---------------|
|-------------------------|---------------|


   +Q    +S  S  E  +Q.   E    H     +Q    +S  S  E
|--------------------------|-----------------------|
|-(16)--(16)---15-(15)-----|-15----(15)--(15)---16-|
|-(17)--(17)---17-(17)-----|-15----(15)--(15)---17-|
|-(17)--(17)---16-(16)-----|-19----(19)--(19)---17-|
|--------------------------|-----------------------|
|--------------------------|-----------------------|


   +Q    +S  S  E  +H       W          W          W
|-------------------------|----------|----------|------|
|-(16)--(16)---15-(15)----|----------|----------|------|
|-(17)--(17)---17-(17)----|----------|----------|------|
|-(17)--(17)---16-(16)----|----------|----------|------|
|-------------------------|----------|----------|------|
|-------------------------|----------|----------|------|


  W          W          W          W
|----------|----------|----------|------|
|----------|----------|----------|------|
|----------|----------|----------|------|
|----------|----------|----------|------|
|----------|----------|----------|------|
|----------|----------|----------|------|


  W          W            H    E  E E  E    +S  S  E E  E  +H
|----------|----------||-----------------|------------------------|
|----------|----------||-----------------|------------------------|
|----------|----------||-----------------|------------------------|
|----------|----------||-16------16---13-|-(13)---13---16-(16)----|
|----------|----------||-18------18---16-|-(16)---16---16-(16)----|
|----------|----------||-19------19---16-|-(16)---16---15-(15)----|


   H    E  E E  E    +S  S  E E  E  +H
|-----------------|------------------------|
|-----------------|------------------------|
|-----------------|------------------------|
|-16------16---13-|-(13)---13---16-(16)----|
|-18------18---16-|-(16)---16---16-(16)----|
|-19------19---16-|-(16)---16---15-(15)----|


   H     +Q    +S  S  E    +Q.    E  +H
|-----------------------|--------14-(14)----|
|--------------------11-|-(11)---14-(14)----|
|--------------------13-|-(13)---12-(12)----|
|-13----(13)--(13)---14-|-(14)--------------|
|-14----(14)--(14)------|-------------------|
|-16----(16)--(16)------|-------------------|


   H     +H        Q.    E  +H
|---------------|------------------|
|-11----(11)----|------------------|
|-11----(11)----|------------------|
|-13----(13)----|-13----16-(16)----|
|-14----(14)----|-16----16-(16)----|
|---------------|-16----15-(15)----|


   H    E  E E  E    +Q    +S  S  E  +Q    +S  S E
|--------------13-|-(13)--(13)---12-(12)--(12)-----|
|-11------11---14-|-(14)--(14)---14-(14)--(14)-----|
|-11------11---13-|-(13)--(13)---16-(16)--(16)-----|
|-13------13------|--------------------------------|
|-14------14------|--------------------------------|
|-----------------|--------------------------------|


   H     +E   S S E  E    +Q    +S  S  E  +H        H    E  S S  S S S S
|-11----(11)--------13-|-(13)--(13)---12-(12)----|-11----------------7----|
|-12----(12)-12-----14-|-(14)--(14)---14-(14)----|-12------16---14---0----|
|-15----(15)-15-----13-|-(13)--(13)---16-(16)----|-13---------------------|
|------------16--------|-------------------------|-14------13---11--------|
|----------------------|-------------------------|------------------------|
|----------------------|-------------------------|------------------------|


  S S S S E S S E  E Q     H.      E  E
|-9---7-----9-----11----|-11---------12-|
|-----0-----------------|-11---------14-|
|-6---------6------8----|-11---------13-|
|-----------------------|---------------|
|-----------------------|---------------|
|-----------------------|---------------|


   +Q    +S  S  E  +Q.   E    H     +Q    +S  S  E
|-(12)--(12)---11-(11)-----|-11----(11)--(11)---12-|
|-(14)--(14)---14-(14)-----|-12----(12)--(12)---14-|
|-(13)--(13)---12-(12)-----|-15----(15)--(15)---13-|
|--------------------------|-----------------------|
|--------------------------|-----------------------|
|--------------------------|-----------------------|


   +Q    +S  S  E  +H        H.      E  E
|-(12)--(12)---11-(11)----|-11---------12-|
|-(14)--(14)---14-(14)----|-11---------14-|
|-(13)--(13)---12-(12)----|-11---------13-|
|-------------------------|---------------|
|-------------------------|---------------|
|-------------------------|---------------|


   +Q    +S  S  E  +Q.   E    H     +Q    +S  S  E
|-(12)--(12)---11-(11)-----|-11----(11)--(11)---12---|
|-(14)--(14)---14-(14)-----|-11----(11)--(11)---14---|
|-(13)--(13)---12-(12)-----|-11----(11)--(11)---13---|
|--------------------------|-------------------------|
|--------------------------|-------------------------|
|--------------------------|-------------------------|


   +Q    +S  S  e  +q..   S
|-(12)--(12)---11-(11)---------*|
|-(14)--(14)---14-(14)---------*|
|-(13)--(13)---12-(12)---------*|
|------------------------------*|
|------------------------------*|
|------------------------------*|




----------------------------------------------------------------------------
----


Duration Legend
---------------
W - whole; H - half; Q - quarter; E - 8th; S - 16th; T - 32nd; X - 64th; a -
acciaccatura
+ - note tied to previous; . - note dotted; .. - note double dotted
Uncapitalized letters represent notes that are staccato (1/2 duration)
Irregular groupings are notated above the duration line
Duration letters will always appear directly above the note/fret number it
represents the
duration for.  Duration letters with no fret number below them represent
rests.  Multi-
bar rests are notated in the form Wxn, where n is the number of bars to rest
for.  Low
melody durations appear below the staff

Tablature Legend
----------------
 h   - hammer-on
 p   - pull-off
 b   - bend
 pb  - pre-bend
 r   - bend release (if no number after the r, then release immediately)
 /\  - slide into or out of (from/to "nowhere")
 s   - legato slide
 S   - shift slide
 n> - natural harmonic
[n]  - artificial harmonic
n(n) - tapped harmonic
 ~   - vibrato
 tr  - trill
 T   - tap
 TP  - trem. picking
 PM  - palm muting
\n/  - tremolo bar dip; n = amount to dip
 \n  - tremolo bar down
 n/  - tremolo bar up
/n\  - tremolo bar inverted dip
 =   - hold bend; also acts as connecting device for hammers/pulls
  > - volume swell (louder/softer)
 x   - on rhythm slash represents muted slash
 o   - on rhythm slash represents single note slash

Misc Legend
-----------
 |  - bar
||  - double bar
||o - repeat start
o|| - repeat end
*|  - double bar (ending)
 :  - bar (freetime)
 $  - Segno
 &  - Coda
Tempo markers -  E/E./Q/Q./H/H.> = BPM(8/16=s8/s16), where s8 = swing 8ths,
s16 = swing 16ths




     
Добавлено: 19.10.2013
Другие материалы по этой песне:
  • Аккорды и текст

Страница создана 19.10.2013
http://primanota.ru/yuyu/mon-petit-garcon-chords.htm
Привет, Гость.
Предлагаем пройти революционный курс по гитаре.
Подарок от PrimaNota.Ru, забирай!