PrimaNota.ru - самый крупный в мире бесплатный архив песенных текстов, аккордов, табулатур и нот


Юрий Шевчук - Последняя осень - аккорды и текст, видео

Регистрация Запомнить меня
Войти через:  Facebook Google Twitter Vk Yandex Mail.ru

Юрий Шевчук - Последняя осень - аккорды и текст, видео

Печатать
Просмотров: 229
Последняя осень
Юрий Шевчук
E|----0--2--3--0--------0-----|--------3--------0--2----|
B|----------------1--3-----1--|-----0-----0--4--------0-|
G|----------------------------|--2----------------------|
D|----------------------------|-------------------------|
A|----------------------------|-------------------------|
E|----------------------------|-------------------------|
 
E|-0--2--3--0--2--3--5-----|--7--8--10-----11--12--14-----|
B|----------------------3--|------------8--------------12-|
G|-------------------------|------------------------------|
D|-------------------------|------------------------------|
A|-------------------------|------------------------------|
E|-------------------------|------------------------------|

E|--------------------0-----|--------3--------0--2----|
B|--------8--------------1--|-----0-----0--4--------0-|
G|-9--11-----9--5--7--------|--2----------------------|
D|--------------------------|-------------------------|
A|--------------------------|-------------------------|
E|--------------------------|-------------------------|

E|-0--2--3--0--2--3--5-----|--7--8--10-----11--12--14-----|
B|----------------------3--|------------8--------------12-|
G|-------------------------|------------------------------|
D|-------------------------|------------------------------|
A|-------------------------|------------------------------|
E|-------------------------|------------------------------|

D|---2-0--------------------0-2-0-----------0-2-0-0--|
A|-2-----3-2-2-2-3-2-0------------3-2-2-2-3---------2|
E|---------------------3-3---------------------------|

D|-0-2-0-------------------------------------------|
A|-------3-2-2-2-3-2-0-----2-0-----------0---0-2-2-|
E|---------------------3-3-----3-1-3-3-3---3-------|

Припев:
D|-----------------------------------------|
A|-2-3-2-0-2-2-0---0-2-2-0-------2-0-------|
E|---------------3---------3-2-3-----3-2-3-|

G7   Am7       F       C
Последняя осень, ни строчки ни вздоха.
   G    Am   F     C
Последние песни осыпались летом.
   G7       Am    F   C
Прощальным костром догорает эпоха,
  E7    Am    F     C
И мы наблюдаем за тенью и светом

Припев:
    E7   Am    F C E7 Am F C
В последнюю осень.

Осенняя осень шутя разметала
Все то что душило пас пыльною ночью
Все то что играло, давило, мерцало
Осиновым ветром разорванно в клочья

Припев

Ах, Александр Сеергеевич милый,
Ну что же Вы нам ничего не сказали,
О том, что искали, держали, любили.
О том, что в последнюю осень вы знали

Припев

Голодное море шипя поглгтило
Осеннее солнце и за облаками
Вы больше не вспомните то что здесь было
И пыльной травы не коснетесь руками

Уходят в последнюю осень поэты
И их не вернуть, заколочены ставни.
Остались дожди и замерзшее лето.
Осталась любовь, и ожившие камни. Последняя осень.

Припев
Добавлено: 16.10.2015
Другие материалы по этой песне:
  • Аккорды и текст

Страница создана 16.10.2015
http://primanota.ru/yurii-shevchuk/poslednyaya-osen-chords.htm
Привет, Гость.
Предлагаем пройти революционный курс по гитаре.
Подарок от PrimaNota.Ru, забирай!