PrimaNota.ru - самый крупный в мире бесплатный архив песенных текстов, аккордов, табулатур и нот


Yura Yura Teikoku - Lonely Satellite - бас-таба, видео

Регистрация Запомнить меня
Войти через:  Facebook Google Twitter Vk Yandex Mail.ru

Yura Yura Teikoku - Lonely Satellite - бас-таба, видео

Печатать
Просмотров: 86
-------------------------------------------------------------------------------
                             Lonely Satellite - Yura Yura Teikoku
-------------------------------------------------------------------------------
Tabbed by: polkahere


Tuning:Standard

Intro & Verse
G|---------------------------------------------------------------------------|
D|----------------------9----------------------------------------------------|
A|--------------------9----9---7----------------------9-7--------------------|
E|5-----5-9-----9-7----------9----5-----5-7-----7-9--------9-7---------------|


G|---------------------------------------------------------------------------|
D|---------------------------------------------------------------------------|
A|------------------------------9-----7---7-9---7----------------------------|
E|5-----5-7---9--7----9--7----------7---9---------7-9------------------------|

1st Chorus
G|---------------------------------------------------------------------------|
D|---------------------------------------------------------------------------|
A|---------------------------------------------------------------------------|
E|5-5-5-5-5-5-5-5-10-10-10-10-10-10-10-10------------------------------------|

G|---------------------------------------------------------------------------|
D|---------------------------------------------------------------------------|
A|---------------------------------------------------------------------------|
E|5-5-5-5-5-5-5-5-10-10-10-10-10-10-10-10------------------------------------|

G|---------------------------------------------------------------------------|
D|---------------------------------------------------------------------------|
A|-----------------------------------------------9-----7---7-9---7-----------|
E|5-5-5-5-5-5-5-5-10-10-10-10-10-10-10-10-7----------7---9---------7-9-------|

2nd & 3rd Chorus
G|---------------------------------------------------------------------------|
D|---------------------------------------------------------------------------|
A|---------------------------------------------------------------------------|
E|5-5-5-5-5-5-5-5-10-10-10-10-10-10-10-10------------------------------------|

G|---------------------------------------------------------------------------|
D|---------------------------------------------------------------------------|
A|---------------------------------------------------------------------------|
E|5-5-5-5-5-5-5-5-10-10-10-10-10-10-10-10------------------------------------|

G|---------------------------------------------------------------------------|
D|---------------------------------------------------------------------------|
A|-----------------------------------------------9-----9----9---7-9----------|
E|5-5-5-5-5-5-5-5-10-10-10-10-10-10-10-10-7----------7---7----7--------------|

G|---------------------------------------------------------------------------|
D|------9------7-9-----------------------------------------------------------|
A|7----------7------7---7-9------7-------------------------------------------|
E|--------------------9------------7-9---------------------------------------|

Last chorus
G|---------------------------------------------------------------------------|
D|---------------------------------------------------------------------------|
A|---------------------------------------------------------------------------|
E|5-5-5-5-5-5-5-5-10-10-10-10-10-10-10-10------------------------------------|

G|---------------------------------------------------------------------------|
D|---------------------------------------------------------------------------|
A|---------------------------------------------------------------------------|
E|5-5-5-5-5-5-5-5-10-10-10-10-10-10-10-10------------------------------------|

G|---------------------------------------------------------------------------|
D|---------------------------------------------------------------------------|
A|---------------------------------------------------------------------------|
E|5-5-5-5-5-5-5-5-10-10-10-10-10-10-10-10------------------------------------|

G|---------------------------------------------------------------------------|
D|---------------------------------------------------------------------------|
A|--------------------------9/12---12-12-11----------------------------------|
E|5-5-5-5-5-5-5-5-10-10-10---------------------------------------------------|

G|---------------------------------------------------------------------------|
D|---------------------------------------------------------------------------|
A|---------------------------------------------------------------------------|
E|5-5-5-5-5-5-5-5-10-10-10-10-10-10-10-10------------------------------------|

G|---------------------------------------------------------------------------|
D|---------------------------------------------------------------------------|
A|---------------------------------------------------------------------------|
E|5-5-5-5-5-5-5-5-10-10-10-10-10-10-10-10------------------------------------|

G|---------------------------------------------------------------------------|
D|---------------------------------------------------------------------------|
A|---------------------------------------------------------------------------|
E|5-5-5-5-5-5-5-5-10-10-10-10-10-10-10-10------------------------------------|


| /  slide up
| \  slide down
| h  hammer-on
| p  pull-off
| ~  vibrato
| +  harmonic
| x  Mute note
===============================================================================
Добавлено: 07.09.2013
Вам также может быть интересно:
Другие материалы по этой песне:
  • Аккорды и текст

Страница создана 07.09.2013
http://primanota.ru/yura-yura-teikoku/lonely-satellite-chords.htm
Привет, Гость.
Предлагаем пройти революционный курс по гитаре.
Подарок от PrimaNota.Ru, забирай!