PrimaNota.ru - самый крупный в мире бесплатный архив песенных текстов, аккордов, табулатур и нот


Йоко Юкихиро - Sakura - аккорды и текст, таба, видео

Регистрация Запомнить меня
Войти через:  Facebook Google Twitter Vk Yandex Mail.ru

Йоко Юкихиро - Sakura - аккорды и текст, таба, видео

Печатать
Просмотров: 203
Sakura
Йоко Юкихиро
Sakura 
Theme and variations
Arrange by Yuquijiro Yocoh
Played by John William
Tab by Edwin Tan (010600)
edwin@your-house.com

Japaness folk song played by John William. Listern to the CD to catch the
timing. 
Shouldn't be a problem. :) 
enjoy.

-5-5-7----5-5-7----0-------0---1-------0---1-----0-1---5---0-------0---
-5-5-10---5-5-10---0-------0---0-------0---0-----0-0---3---0-----1-0---
-7-7-9----7-7-9----2-------2---2-------2---2-----2-2---4---2-----2-2---
-7-7-7----7-7-7----------------------0-2-------------------------3---2-
-----7--------7------------0-2---0-2---------0-0-----0---0-------------
--------0--------0---0-1-0---------------0-------------------0-0-------

*muted*
----------------0----7-10-
------------0-3---10------
----------2---------------
------0-2-----------------
--0-2---------------------
0-------------------------

*Tremolo with index finger*
-12-12-12-12-12-12-12-12-12-12-12-12-12-12-12-12-
-10-10-10-10-10-10-10-10-12-12-12-12-12-12-12-12-
-------------------------------------------------
-------------------------------------------------
-------------------------------------------------
-------------------------------------------------

12-12-12-12-12-12-12-12-12-12-12-12-12-12-12-12-12-12-12-12-12-12-12-12
13-13-13-13-13-13-13-13-12-12-12-12-12-12-12-12-10-10-10-10-12-12-12-12
-----------------------------------------------------------------------
-----------------------------------------------------------------------
-----------------------------------------------------------------------
-----------------------------------------------------------------------
			  *muted*
-12-12-12-12-13-13-13-13-I-12-8-7-5---5-7-0---------0-
-10-10-10-10-10-10-10-10-I----------6-------1-0-----0-
-------------------------I----------------------2---7-
-------------------------I------------------------3-7-
-------------------------I--------------------------7-
-------------------------I--------------------------0-

Theme
-5-5-7---5-5-7---5-7-8-7-5-7-5-------0---0---0-0---------
---6---------------------------6-----------6-------0-----
-----7-9-5---9-------------------4-7-7-5-4-------5-------
-7---------7-----3---7---3-----7-------7---7-------------
---------------7---7-------7-----------------8-----7-8-7-
---------------------------------------------------------

-5-7-8-7-5-7-5-------0---0---0-0---------5-5-7---5-5-7---
---------------6-----------6-------0-------6-------------
-----------------4-7-7-5-4-------5-----------7-9-5---9---
-3---7---3-----7-------7---7-------------7---------7-----
---7-------7-----------------8-----7-8-7---------------7-
---------------------------------------------------------

---0-1-7-5-1-------0-
-5-------------0-3-0-
-----------2-2-----2-
-----0-------------2-
-8-7---7-----------0-
-------------------0-

1st Variation
-5p0---0---------7p0---0----------5p0---0---------7p0---0---------
-----6-----0---0-----6-----0---0------6-----0---0-----6-----0---0-
---------7---------------7----------------7---------------7-------
-------------7---------------7----------------7---------------7---
------------------------------------------------------------------
------------------------------------------------------------------

-5p0---0-7p0-----8p0---0-7p0-----5p0---0-7---5-----0---0---0-
-----6---------0-----6---------0-----6-----------6-------0---
-------------7---------------7-------------7---7-----7-------
-------------------------------------------------------------
-------------------------------------------------------------
-------------------------------------------------------------

-----0---------------0-------1-------0-------0---------------------0-
---0-------0-1-----1-------0-------0-------0-----1---0-----0---0-6---
-2-------2-------2-------2-------2-------2---------------2---7-------
-------2-------2-------2-------2-------2-------2---2---2-------------
---------------------------------------------------------------------
---------------------------------------------------------------------

-5p0---0-7p0-----8p0---0-7p0-----5p0---0-7---5-----0---0---0-
-----6---------0-----6---------0-----6-----------6-------0---
-------------7---------------7-------------7---7-----7-------
-------------------------------------------------------------
-------------------------------------------------------------
-------------------------------------------------------------

-----0---------------0-------1-------0-------0---------------------0-
---0-------0-1-----1-------0-------0-------0-----1---0-----0---0-6---
-2-------2-------2-------2-------2-------2---------------2---7-------
-------2-------2-------2-------2-------2-------2---2---2-------------
---------------------------------------------------------------------
---------------------------------------------------------------------

-5p0---0---------7p0---0----------5p0---0---------7p0---0-------0-
-----6-----0---0-----6-----0---0------6-----0---0-----6-----0-----
---------7---------------7----------------7---------------7-------
-------------7---------------7----------------7---------------7---
------------------------------------------------------------------
------------------------------------------------------------------

-------------------0-7p5---0-------------------------------0-------
-6-----------0---6-------6-----0---------------0---0---0--------10-
---------------7-------------7-------------------7-------7---10----
-----9-0---7---------------------7-----0-----7-------7-------------
---0-----7-------------------------8p7---7h8-----------------------
-------------------------------------------------------------------

-7----------7-----
-10---------10----
-7--------7-9-----
------7-9---------
-7--8----------7--
-----------------0

2nd Variation (Harmonic Octaves)

---------------------------------------------------------------
---------0---------------0-----------0---1---0-----0-------0-3-
-2---2-----------2---2-----------2---------------2---2---2-----
---2---2---2---2---2---2---2---2---2---2---2---2---2---3-------
---------------------------------------------------------------
-------------0---------------0---------------------------------

-0-------0---1---0---0-------------------------------------------
-----1-----------------1-0-----------0---1---0-------0-------0-3-
-------2-------2-----------2-----2---------------2-----2---2-----
---2-------2-------2---------3-2---2---2---2---2---2-----3-------
-----------------------------------------------------------------
-----------------------------------------------------------------

-0-------0---1---0---0-------------------------------------------
-----1-----------------1-0---------------0---------------0-------
-------2-------2-----------2-----2---2-----------2---2-----------
---2-------2-------2---------3-2---2---2---2---2---2---2---2---2-
-----------------------------------------------------------------
---------------------------------------------0---------------0---

---------0-1-7-5-1-0-----------------------------0---
-----0-3-------------3-0---------------------0-3-----
---2---------------------2-----------------2---------
-3-------------------------3-2-0-------0-2-----------
-----------------------------------0-2---------------
---------------------------------0-----------------0-

3rd Variation (Not played by John William)

4th Variation (Tremolo)
*not very sure but works for me :)*

-5~-------7~--------5~-------7~--------5~---7~---8~---7~---5~---7~---5~
------5--------10--------5--------10--------5---------5---------6------
----7---7----9----9----7---7----9----9----7----7----7----7----7----7---
-7------------------7------------------7---------7---------7-----------
----------7------------------7-----------------------------------------
-----------------------------------------------------------------------

-1~----------0~---1~---0~---------------
--------1~-----------1------1~-0~-------
----2------2------2-------2-------------
-0----2---------2-----------------2-3-2-
----------------------------------------
-------------------------------0--------

5~---7~---8~---7~---5~---7~---5~-
-----5---------5---------6-------
---7----7----7----7----7----7----
7---------7---------7------------
---------------------------------
---------------------------------

-1~----------0~---1~---0~---------------
--------1~-----------1------1~-0~-------
----2------2------2-------2-------------
-0----2---------2-----------------2-3-2-
----------------------------------------
-------------------------------0--------


-5~-------7~--------5~-------7~---------
------5--------10--------5--------10----
----7---7----9----9----7---7----9----9~-
-7------------------7-------------------
----------7------------------7----------
----------------------------------------

-1~-----------7~---5~---1~-----------------0~-------0-
------------0----0---------------0---0-3-5----0-----0-
----------2---7----------------2---2------------2---2-
----0-2-3-------------0----2-3--------------------3-2-
-0----------------------------------------------------
------------------------------------------------------

Coda
			      *muted*
-1-----0-1---5---0-------0---I-----------------0----7-10-
-0-----0-0---3---0-----1-0---I-------------0-3---10------
-2-----2-2---4---2-----2-2---I-----------2---------------
-----------------------3---2-I-------0-2-----------------
---0-0-----0---0-------------I---0-2---------------------
-------------------0-0-------I-0-------------------------

*Tremolo with index finger*
-12-12-12-12-12-12-12-12-12-12-12-12-12-12-12-12-
-10-10-10-10-10-10-10-10-12-12-12-12-12-12-12-12-
-------------------------------------------------
-------------------------------------------------
-------------------------------------------------
-------------------------------------------------

12-12-12-12-12-12-12-12-12-12-12-12-12-12-12-12-12-12-12-12-12-12-12-12
13-13-13-13-13-13-13-13-12-12-12-12-12-12-12-12-10-10-10-10-12-12-12-12
-----------------------------------------------------------------------
-----------------------------------------------------------------------
-----------------------------------------------------------------------
-----------------------------------------------------------------------
			  *muted*
-12-12-12-12-13-13-13-13-I-12-8-7-5---5-7-0--------------0-*
-10-10-10-10-10-10-10-10-I----------6--------------------0-*
-------------------------I-------------------------------2-*
-------------------------I-------------------------------2-*
-------------------------I------------------3-2-0---0-2--0-*
-------------------------I------------------------1------0-*

END


     
Добавлено: 08.08.2013
Другие материалы по этой песне:

Страница создана 28.03.2012
http://primanota.ru/yuquijiro-yocoh/sakura-chords.htm
Привет, Гость.
Предлагаем пройти революционный курс по гитаре.
Подарок от PrimaNota.Ru, забирай!