PrimaNota.ru - самый крупный в мире бесплатный архив песенных текстов, аккордов, табулатур и нот


Yup - Uzbekistanin Urut - таба, видео

Регистрация Запомнить меня
Войти через:  Facebook Google Twitter Vk Yandex Mail.ru

Yup - Uzbekistanin Urut - таба, видео

Печатать
Просмотров: 52
UZBEKISTANIN URUT

 
E|-----------------|
B|-----------------|
G|-----------------|
D|-3---3---8---7---|
A|-3---1---6---7---|
E|-1---1---6---5---|


E|-2-----------1-------------------------------------------------------------------------|
B|-----3-----------0---------------------------------------------------------------------|
G|---------2-----------0---------5---5---4---4-4---2-2-2---------------------------------| ktr 1
D|-------------------------------5---5---4---4-4---2-2-2---------5---5-5-2---2-2---7---7-|
A|-------------------------5-5-5-3---3-3-2---2-2---0-0-0---------5---5-5-2---2-2---7---7-|
E|---------------------------------------------------------0-0-0-3---3-3-4---4-4---5---5-|
 |                         . . .       .                   . . .                         |
E|----2-----------1----------------------------------------------------------------------|
B|--------3-3---------0------------------------------------------------------------------|
G|--2------2----0------0---------5-------4---------2---2---------------------------------| ktr 2
D|-0-0---------0-0---------------5-------4---------2---2---------5-------2-----2---7---7-|
A|-------------------------5-5-5-3---3-3-2---2-2-2-0---0---------5-------2-----2---7---7-|
E|---------------------------------------------------------0-0-0-3---3-3-4---4-4---5---5-|
                           . . .     . .     . . .         . . .     . .     .



E|----------------------------------------------------------------------------------|
B|----------------------------------------------------------------------------------|
G|-7---------------------7-----------------7---------------------7------------------| ktr 1
D|-7-----------9--8--7---7-----------------7-----------4--5--7---7------------------|
A|-5---5555555-9--8--7---5---555555555555555---5555555-4--5--7---5---55555555555555-|
E|-------------7--6--5---------------------------------2--3--5----------------------|
 |     .......               ..............    .......               .............. |
E|----------------------------------------------------------------------------------|
B|----------------------------------------------------------------------------------|
G|-7-------------------------------------------------------------7------------------| ktr 2
D|-7-----------9--8--7-6/7-----------------6-6---------4--5--7---7------------------|
A|-5---5555555-9--8--7-4/5---555555555555554/5-5555555-4--5--7---5---55555555555555-|
E|-------------7--6--5---------------------4/5---------2--3--5----------------------|
       .......               ..............    .......               ..............


E|-------------------------------------------------------------|
B|-------------------------------------------------------------|
G|-------------------------------------------------------------| urut
D|-5-4-----4-----------------------5-4-----4-------------------|
A|-----7-5---7-5-4-5-4-----------------7-5---7-5-4-5-4---------|
E|---------------------7-5-7---------------------------7-5-7---|
 |                                                             |
E|-------------------------------------------------------------|
B|-------------------------------------------------------------|
G|-9-------7---------------4-------4---------------------------| ktr 1
D|-9-------7-------5---4---4---------7-5-4-7-5-4---4-----------|
A|-7-------5-------5---4---2---------------------7---7-5-4-5---|
E|-----------------3---2---------------------------------------|
 |                                                             |
E|-------------------------------------------------------------|
B|-------------------------------------------------------------|
G|-9-------7---------------4-------9-------7---------------4---| ktr 2
D|-9-------7-------5---4---4-------9-------7-------5---4---4---|
A|-7-------5-------5---4---2-------7-------5-------5---4---2---|
E|-----------------3---2---------------------------3---2-------|



E|---------------------------------------------------------------------------------------------|
B|---------------------------------------------------------------------------------------------|
G|---6-6-6-6-6-6-9-9-8-8-6---6-6---------------------------------6-6-6-6-6-6-6-9-9-8-7-6---6-6-| ktr 1
D|---6-6-6-6-6-6-9-9-8-8-6---6-6---6-6-6-6-6-8-6-----------------6-6-6-6-6-6-6-9-9-8-7-6---6-6-|
A|---4-4-4-4-4-4-7-7-6-6-4---4-4-----------------9-6-6-6-6---9---4-4-4-4-4-4-4-7-7-6-5-4---4-4-|
E|---------------------------------------------------------------------------------------------|
 |                                                                                             |
E|---------------------------------------------------------------------------------------------|
B|---------------------------------------------------------------------------------------------| 
G|-6---------------------6---6-6---------------------------------6-6-6-6-6-6-6---------6-6-6-6-| ktr 2
D|-6---6-6-6-6-6---------6---6-6---6-6-6-6-6-6-6-----------------6-6-6-6-6-6-6---------6-6-6-6-|
A|-4---4-4-4-4-4-7-7-6-5-4---4-4---4-4-4-4-4-4-4-6-6-6-6-6-6-6---4-4-4-4-4-4-4-7-7-6-5-4-4-4-4-|
E|-----------------------------------------------4-4-4-4-4-4-4---------------------------------|
       . . . . .                   . . . . . . . . . . . . . .


E|-2-----------1-------------------------------------------|
B|-----3-----------0---------------------------------------|
G|---------2-----------0---7-7-7-5---5-5-4---4-4---2---2---| ktr 1
D|-------------------------7-7-7-5---5-5-4---4-4---2---2---|
A|-------------------------5-5-5-3---3-3-2---2-2---0---0---|
E|---------------------------------------------------------|
 |                                                         |
E|----2-----------1----------------------------------------|
B|--------3-3---------0------------------------------------|
G|--2------2----0------0---7-7-7-5---5-5-4---4-4---2---2---| ktr 2
D|-0-0---------0-0---------7-7-7-5---5-5-4---4-4---2---2---|
A|-**********--------------5-5-5-3---3-3-2---2-2---0---0---| *=jotenkin tuo kuulostaa hieman
E|---------------------------------------------------------| oudolta joten en ole kovin varma
                                                             soitetaanko tuo noin
E|-2-----------1-------------------------------------------|
B|-----3-----------0---------------------------------------|
G|---------2-----------0-----------------------------------| ktr 1
D|-------------------------------5---5-5-2---2-2---7---7---|
A|-------------------------------5---5-5-2---2-2---7---7---|
E|-------------------------0-0-0-3---3-3-4---4-4---5---5---|
 |                         . . .                           |
E|----2-----------1----------------------------------------|
B|--------3-3---------0---(0)------------------------------|
G|--2------2----0------0--(0)------------------------------| ktr 2 
D|-0-0---------0-0-------------------5-5-2---2-2---7---7---|
A|-----------------------------------5-5-2---2-2---7---7---|
E|-------------------------0-0-0-3---3-3-4---4-4---5---5---|
                           . . .
E|---------------------------------|
B|---------------------------------|
G|---------------------------------| ktr 1
D|-5-3---5---3---5---3---------3---|
A|-----6-------6-------6---5-6-----|
E|---------------------------------|
 |                                 |
E|---------------------------------|
B|---------------------------------|
G|---------------------------------| ktr 2
D|-------5---5-5-6---6-6---8---8---|
A|-------5---5-5-6---6-6---8---8---|
E|-1-1-1-3---3-3-4---4-4---6---6---|
   . . .


E|----------------------------------------------------------15-------|
B|-13-12-13-15-16---15-13-12---------13-12-13-15-16---15-13----------|
G|---------------------------12--------------------------------------| urut
D|-------------------------------------------------------------------|
A|-------------------------------------------------------------------|
E|-------------------------------------------------------------------|
 |                                                                   |
E|-------------------------------------------------------------------|
B|-------------------------------------------------------------------|
G|-------------------------------------------------------------------| ktr 1
D|/10--------------------/9--12-----/10---------------------/9---12--|
A|-------10------------------10------------10--------------------10--|
E|--------8---------------------------------8------------------------|
 |                                                                   |
E|-------------------------------------------------------------------|
B|-------------------------------------------------------------------|
G|--------5--------------------------5-----5-------------------------|
D|-5------5-------------------5------5-----5-----6-----6-----5----5--|
A|-3------3-------------------5------3-----3-----6-----6-----5----5--|
E|-3----------------------3---3------------------4-----4-----3----3--|

E|-16-15-13---------15-13------------16-15-13---------15-13------------|
B|----------16-15---------16-15-13------------16-15---------16-15-14---|
G|---------------------------------------------------------------------| urut
D|---------------------------------------------------------------------|
A|---------------------------------------------------------------------|
E|---------------------------------------------------------------------|
 |                                                                     |
E|---------------------------------------------------------------------|
B|---------------------------------------------------------------------|
G|---------------------------------------------------------------------| ktr 1
D|--6--5--3----------5--3-------------6--5--3----------5--3------------|
A|-----------6--5----------6--5--3-------------6--5----------6--5--4---|
E|---------------------------------------------------------------------|
 |                                                                     |
E|---------------------------------------------------------------------|
B|---------------------------------------------------------------------|
G|--------------3----8----------------------------3----8---------------| ktr 2
D|--3-----------3----8-----------6----3-----------3----8---------------|
A|--3-----------1----6-----------6----3-----------1----6---------------|
E|--1----------------------------4----1----------------------------5---|




E|-----------------------------------------------------------------------------|
B|-----------------------------------------------------------------------------|
G|-7--------------------------------------7-----------------7------------------| ktr 1
D|-7-----------9--8--7-----------*******--7-------4--5--7---7-------------7777-|
A|-5---5555555-9--8--7---5555888810101212-5-55555-4--5--7---5---55555555555555-|
E|-------------7--6--5----------------------------2--3--5----------------------|
 |     .......                              .....               ..........     |
E|-----------------------------------------------------------------------------|
B|-----------------------------------------------------------------------------|
G|-7---------------------------------------------------------------------------| ktr 2
D|-7-----------9--8--7-----------********---------4--5--7----------------------|
A|-5---5555555-9--8--7---5555888810101212-5555555-4--5--7---555555555555555555-|
E|-------------7--6--5----------------------------2--3--5----------------------|
       .......                            .......               ..............

*=oikeasti jokainen nuotti soitetaan neljä kertaa mutta rajallisen tilan 
  merkitsin sen tuolla tavalla



P.S. Riffit merkitsin sitä mukaa kun ne ensimmäistä kertaa tulee CD:ltä joten
     toistot saattavat olla hieman erilaisia 






Tabulatuurin teki Tuomas Rönkkö.
Добавлено: 29.11.2015
Другие материалы по этой песне:
  • Аккорды и текст

Страница создана 29.11.2015
http://primanota.ru/yup/uzbekistanin-urut-chords.htm
Привет, Гость.
Предлагаем пройти революционный курс по гитаре.
Подарок от PrimaNota.Ru, забирай!