PrimaNota.ru - самый крупный в мире бесплатный архив песенных текстов, аккордов, табулатур и нот


Yup - Soljan Käsittely - таба, видео

Регистрация Запомнить меня
Войти через:  Facebook Google Twitter Vk Yandex Mail.ru

Yup - Soljan Käsittely - таба, видео

Печатать
Просмотров: 74
Уроки эстрадного вокала в Санкт-Петербурге
SOLJAN KÄSITTELY:
-----------------

(x) = BASSO

e------------------------------|
b------------------------------|
g-------0--2--4--5----0--2--4--|
D-2--3-------------3-----------|
A---------(0)------------------|
E(0)--------------(1)------(3)-|

SÄE:
e-------------------------------|
b-------------------------------|
g---5-4-----------5-7-5-4-5-7~~-|
D-- x x 7-5---5-7 x x x x x ----|
A------ x x 8 x x --------------|
E---------- x ------------------|

e----------------------------|---------------------------------|
b----------------------------|---------------------------------|
g----------------------------|---------------------------------|
D-2--3--5-7--9--10-3--5--7-9-|-3-3-3-3-7-7-7-7-5-5-5-5-5-5-5-5-|
A----------------------------|-3-3-3-3-5-5-5-5-5-5-5-5-5-5-5-5-|
E----------------------------|-1-1-1-1---------3-3-3-3-3-3-3-3-|
                               Pureva ivansa...
Добавлено: 29.11.2015
Другие материалы по этой песне:
  • Аккорды и текст

Страница создана 29.11.2015
http://primanota.ru/yup/soljan-kasittely-chords.htm
Привет, Гость.
Предлагаем пройти революционный курс по гитаре.
Подарок от PrimaNota.Ru, забирай!