PrimaNota.ru - самый крупный в мире бесплатный архив песенных текстов, аккордов, табулатур и нот


Yup - Sikamusiikkia - таба, видео

Регистрация Запомнить меня
Войти через:  Facebook Google Twitter Vk Yandex Mail.ru

Yup - Sikamusiikkia - таба, видео

Печатать
Просмотров: 42
YUP - Sikamusiikkia

Tabuloinut Simo Kurra, jome@cc.tut.fi

Tämä on ulkomuistista kirjoitettu, joten korjattavaa varmasti löytyy...

Intro
2x            p.m                 p.m
          |--------|           |----------------------------------------|
E |--------------------|------------------|----------------|------------|
b |--------------------|------------------|----------------|------------|
G |--------------------|------------------|----------------|------------|
D |----7---------------|---7--------------|--7--------9----|------------|
A |---4/5---5-5-5-5----|--4/5---5-5-5-5---|--4/5------7----|----7-------|
E |--------------------|------------------|----------------|----5-------|

verse 2x
       p.m
   |-----------------------------------------------------------------------|gt;
E |----------------|----------------|-----------------|--------------------|
b |----------------|----------------|-----------------|--------------------|
G |----------------|----------------|-----------------|-6-6--6--5----------|
D |----------------|----------------|-----------------|-6-6--6--6----------|
A |----------------|----------------|-----------------|--------------------|
E |5-5-5-5-5-5-5-5-|5-5-5-5-5-5-5-5-|-4-4-4-4-4-4-4-4-|--------------------|


E |----------------|----------------|-----------------|-------------------|
b |----------------|----------------|-----------------|-------------------|
G |----------------|----------------|-----------------|-------------------|
D |----------------|----------------|-----------------|-------------------|
A |----------------|----------------|-----------------|-------------------|
E |5-5-5-5-5-5-5-5-|5-5-5-5-5-5-5-5-|-4-4-4-4-4-4-4-4-|-4-4-4-4-4-4-4-4---|

2x                 p.m
   |-----------------------------------------------------------------------|
E |----------------|----------------|-----------------|--------------------|
b |----------------|----------------|-----------------|--------------------|
G |----------------|----------------|-----------------|--------------------|
D |----------------|----------------|----2------------|--------------------|
A |----4-------2-4-|---------4------|-------------4-0-|2-------------------|
E |2-5-------5-----|-----5----------|-----------------|--------------------|


välihommeli 4x

E |----------------|----------------|
b |----------------|----------------|
G |----------------|----------------|
D |----------------|----------------|
A |----------------|--------2-------|
E |4-0-3-4-0-3-4-0-|0-2-3-5---5-3-2-|

välisoitto 2x(toisella kertaa laulaen la la la la)

   p.m aina välillä, kuuntele!

E |----------------|----------------|----------------|-------------------|
b |----------------|----------------|----------------|-------------------|
G |----------------|----------------|9-------------10|-10-10/12-12-------|
D |--------------7-|-7-7/9-9---9----|7---7-7-7-7-7-8-|-8--8/10--10-------|
A |7-------------5-|-5-5/7-7---7----|----------------|-------------------|
E |5---5-5-5-5-5---|----------------|----------------|-------------------|

E |-----------------|----------------------|-----------------|-------------------|
b |-----------------|----------------------|-----------------|-------------------|
G |-----------------|----------------------|-----------------|-------------------|
D |-----------------|-----14---12----------|-----------------|-----14---12-------|
A |10------------12-|--12-12---10---10-10--|10------------12-|--12-12---10-------|
E |8---8-8-8-8-8-10-|--10------------------|8---8-8-8-8-8-10-|--10---------------|


välisoiton urkumelodia kitaralle sovitettuna

E |--------12151213-|--12-------------|--------12151213-|--12---------------|
b |--121315---------|----151312----12-|--121315---------|----151315---------|
G |14---------------|----------1413---|14---------------|-------------------|
D |-----------------|-----------------|-----------------|-------------------|
A |-----------------|-----------------|-----------------|-------------------|
E |-----------------|-----------------|-----------------|-------------------|

E |--------15201517-|--15-------------|--------15201517-|--15---------------|
b |--151718---------|----181715----15-|--151718---------|----181715---------|
G |17---------------|----------1716---|17---------------|-------------------|
D |-----------------|-----------------|-----------------|-------------------|
A |-----------------|-----------------|-----------------|-------------------|
E |-----------------|-----------------|-----------------|-------------------|

loppuhehkutukset 2x
E |----------------|----------------|-----------------|-------------------|
b |----------------|----------------|-----------------|-------------------|
G |2---------------|5---------------|7----------------|9------------------|
D |4---------------|7---------------|9----------------|11-----------------|
A |----------------|----------------|-----------------|-------------------|
E |----------------|----------------|-----------------|-------------------|

2x intro
2xloppuhehkutukset
2xintro
loppu!
Добавлено: 29.11.2015
Другие материалы по этой песне:
  • Аккорды и текст

Страница создана 29.11.2015
http://primanota.ru/yup/sikamusiikkia-chords.htm
Привет, Гость.
Предлагаем пройти революционный курс по гитаре.
Подарок от PrimaNota.Ru, забирай!