PrimaNota.ru - самый крупный в мире бесплатный архив песенных текстов, аккордов, табулатур и нот


Yup - Saba Saba - таба, видео

Регистрация Запомнить меня
Войти через:  Facebook Google Twitter Vk Yandex Mail.ru

Yup - Saba Saba - таба, видео

Печатать
Просмотров: 55
SABA SABA

 
Intro
E|-----------------------|
B|-hh----------------3-5-|
G|-2340-----hph----4-4-6-|
D|------4-0-2320---------|
A|---------------2-------|
E|-----------------------|



riffi  x4
E|------------------------------------------------------------------------|
B|------------------------------------------------------------------3---5-| (neljännellä kerralla
G|---------------------------------------------4---0----------------4---6-| kikkailun tilalle
D|-7-------------7---------------5-------------------4-0-2h3-2------------|  tulee C5)
A|-5---5-5-5-5-5-5---5-5-5-5-5-5-3---3-3-3-3-3-----------------2----------| 
E|------------------------------------------------------------------------|


"saba... saba..."  x8
E|---------|
B|---------|
G|---------|
D|---------|
A|-5-5---7-|
E|-3-3---5-|

välisoitto  x4  (kitaran ajoitus heittää, but who cares...)
E|-----------------------------------------------------------------------------------|
B|-------------------------------------------------------------------12~-----12~-----|
G|----------------------------------------------7-----10----------10------10------10-| urut
D|-9-8-7-------7-8-9-8-7-------7-8-9---7-8-9-10---9-7----10-7------------------------|
A|-------8-7-8-----------8-7-8-------8------------------------8----------------------|
E|-----------------------------------------------------------------------------------|
 |                                                                                   |
E|-----------------------------------------------------------------------------------|
B|-------------------------8---------------------------------------------------------|
G|-----------------6--------------------------------------------------4------4-------| kitara
D|---------7-------------------------------------------------------3-------3-------3-|
A|-0-------------------------------3------------------3---3--3-----------------------|
E|---------------------------------1------1-1-3-3-3-3-1---1--1-----------------------|




Tabulatuurin teki Tuomas Rönkkö.
Добавлено: 29.11.2015
Другие материалы по этой песне:
  • Аккорды и текст

Страница создана 29.11.2015
http://primanota.ru/yup/saba-saba-chords.htm
Привет, Гость.
Предлагаем пройти революционный курс по гитаре.
Подарок от PrimaNota.Ru, забирай!