PrimaNota.ru - самый крупный в мире бесплатный архив песенных текстов, аккордов, табулатур и нот


Yup - Rankat Ankat - таба, видео

Регистрация Запомнить меня
Войти через:  Facebook Google Twitter Vk Yandex Mail.ru

Yup - Rankat Ankat - таба, видео

Печатать
Просмотров: 95
Уроки эстрадного вокала в Санкт-Петербурге
RANKAT ANKAT

 
h=hammer-on
p=pull-off
/\=liuku
.=demppaus



E|-----------------------------------------------------------------------------------------------|
B|-----------------------------------------------------------------------------------------------|
G|---------------------------------------------------2---------------------------2---------------| ktr 1
D|-5--------------2----------------5-----------------2-----------5---------------2---2-2-2-2-2-2-|
A|-5--------------2----------------3-----------------0-----------3---3-3-3-3-3-3-0---0-0-0-0-0-0-|
E|-3--------------0----------------3-----------------------------3---3-3-3-3-3-3-----------------|
 |                    *                                              . . . . . .     . . . . . . |
E|---8fb--8---8---8--*8*--7---------------------7-----------------------------7------------------|
B|--------|---|---|---*-------10---8---8---10-------10---8-------8---8---10-------10---8---------|
G|--------|---|---|----------------------------------------9~----------------------------9-------| ktr 2
D|-sävel-edelleen-venytettynä--------------------------------------------------------------------|
A|-----------------------------------------------------------------------------------------------|
E|-----------------------------------------------------------------------------------------------|
                      *=säveltä ei soiteta vaan venytys
                        vapautetaan alkuperäiseen säveleen
E|---------------------------------|
B|---------------------------------| 
G|-6---------------------------6-6-| ktr 1
D|-6---6-6-6-6-6-6-6-6-6-6-6-6-6-6-|
A|-4---4-4-4-4-4-4-4-4-4-4-4-4-4-4-|
E|---------------------------------|
 |     . . . . . . . . . . . .     |
E|---------------------------------|
B|---------------------------------|
G|-----6-9-6-9---6------(6)--------| ktr 2
D|-6-9---------6--------(6)--------|
A|---------------------------------|
E|---------------------------------|





E|--------------------------------------------------------------------|
B|--------------------------------------------------------------------|
G|--------------------------------------------------------------------| ktr 1
D|-5/7---7---7---7---7/9---9---9---9---5---5---2---2---4---2---4------|
A|-3/5---7---7---7---7/9---9---9---9---3---3---0---0---2---0---2------|
E|-3/5---5---5---5---5/7---7---7---7---3---3---0---0---2---0---2------|
 |                                                                    |
E|--------------------------------------------------------------------|
B|-8/10-10--10--10--10/12-12--12--12---8---8---5---5---7---5---7------|
G|-5/7---7---7---7---7/9---9---9---9---5---5---2---2---4---2---4------| ktr 2
D|-5/7---7---7---7---7/9---9---9---9---5---5---2---2---4---2---4------|
A|--------------------------------------------------------------------|
E|--------------------------------------------------------------------|



E|-----7h8-------------------------------|
B|-----7h8-------7h8-------4h5-----------|
G|---------------7h8-------4h5-----3---3-| kitarat 1 & 2
D|---------------------------------3---3-|
A|-0-0-------0-0-------0-0-------0-1---1-|
E|---------------------------------------|
   . .       . .       . .       .

E|-------------------------------------------------|
B|-9-12-9-11-9-------------------------------------|
G|-------------10-9---9----------------------------| kitarat 1 & 2
D|-----------------------9-11-12-11-9-8-7----------|
A|----------------------------------------10-7---7-|
E|-------------------------------------------------|
 |                                                 |
E|-------------------------------------------------|
B|-------------------------------------------------|
G|-------------------------------------------------| kitara 3
D|-------------------------------------------------|
A|-2-2-2-2-2-2-2-2-2-2-2-2-5-5-5-7-7-7-2-2-2-2-2-2-|
E|-0-0-0-0-0-0-0-0-0-0-0-0-3-3-3-5-5-5-0-0-0-0-0-0-|
   . . . . . . . . . . . . . . . . . . . . . . . .

E|-------------------------------------------------------------------------------------|
B|-------------------------------------------------------------------------------------|
G|-------------------------------------------------------------------------------------| ktr 1
D|-------------------2-----------------------2-----------2-----------2-----5-----7-----|
A|-2-2-2-2-2-2-2-2-2-2-2-2-5-5-5-7-7-7-2-2-2-2-2-2-2-2-2-2-2-2-2-2-2-2-2-2-5-3-3-7-7-7-|
E|-0-0-0-0-0-0-0-0-0-0-0-0-3-3-3-5-5-5-0-0-0-0-0-0-0-0-0-0-0-0-0-0-0-0-0-0-3-3-3-5-5-5-|
 | . . . . . . . . .   . . . . . . . . . . .   . . . . .   . . . . .   . .   . .   . . |
E|1619161816--------------------------------------1619161816---------------------------|
B|----------1817----17--------------------------------------1817----17-----------------|
G|--------------------16181918161514----------------------------------16181918161514---| ktr 2
D|----------------------------------1714--------------------------------------------17-|
A|-------------------------------------------------------------------------------------|
E|-------------------------------------------------------------------------------------|


HUOM! Kitara 1 jättää jotkut nuotit demppaamatta, kuunnelkaa CD:tä      
E|-----------------------------------------------------------------------------|
B|-----------------------------------------------------------------------------|
G|-------------------4---------------------------------------------------------| ktr 1
D|-5-----------------4-------------------2-------------------------------------|
A|-5-----------------2---2-2-2-2-2-2-2-2-2-------------------------------------|
E|-3---3-3-3-3-3-3-3---------------------0---0-0-0-0-0-0-0-0-0-0-0-0-0-0-0-0-0-|
 |     . . . . . . .     . . . . . . . .     . . . . . . . . . . . . . . . . . |
E|-----------------------------------------------------------------------------|
B|-----------------------------------------------------------------------------|
G|-----12-----------11------------------13-------------------------------------| ktr 2
D|-12---------------12------------------14-------------------------------------|
A|-----------------------------------------------------------------------------|
E|-----------------------------------------------------------------------------|

E|-----------------------------------------------------------------------------|
B|-----------------------------------------------------------------------------|
G|-----------------------------------------------------------------------------| ktr 1
D|-5---------------------4---------3-----2-------------------------------------|
A|-5-------------------4---------3-------2-------------------------------------|
E|-3---3-3-3-3-3-3-3-2---------1---------0---0-0-0-0-0-0-0-0-0-0-0-0-0-0-0-0-0-|
 |     . . . . . . . . .       . .           . . . . . . . . . . . . . . . . . |
E|-----------------------------------------------------------------------------|
B|-----------------------------------------------------------------------------|
G|-----12------------11-------10----------9------------------------------------| ktr 2
D|-12----------------11-------10----------9------------------------------------|
A|-----------------------------------------------------------------------------|
E|-----------------------------------------------------------------------------|

                                                     *=sointu soitetaan ainoastaan
                                                       viimeisellä kerralla             
E|--------------------------------------------------------------------------------|
B|--------------------------------------------------------------------------------|
G|----------------------------------------------------------------------------*---| ktr 1
D|-4-----------------3-----------------4-----------------6------4------6-----*5*--| 
A|-4-----------------3-----------------4-----------------6------4------6-----*3*--| 
E|-2---2-2-2-2-2-2-2-1---1-1-1-1-1-1-1-2---2-2-2-2-2-2-2-4------2------4-----*3*--|
 |     . . . . . . .     . . . . . . .     . . . . . . .                      *   |
E|--------------------------------------------------------------------------------|
B|--------------------------------------------------------------------------------|
G|--------------------------------------------------------------------------------| ktr 2
D|-pp--pp--pp--pp----pp--pp--pp--pp----pp--pp--pp--pp---10------8-----10----------|
A|-970-970-970-970---860-860-860-860---970-970-970-970----------------------------|
E|-------------------------------------------------------8------6------8----------|


E|----------------------------------------------------------------------------------------------|
B|----------------------------------------------------------------------------------------------|
G|----------------------------------------------------------------------------------------------| ktr 1
D|-----------4------------6------------4------------6------------4-----------6-------------4----|
A|------4------------6------------4------------6------------4------------6------------4---------|
E|-2------------4------------2------------4------------2------------4------------2--------------|
 |                                                                                              |
E|----------------------------------------------------------------------------------------------|
B|----------------------------------------------------------------------------------------------| 
G|-11----11----13-----13-----11-----11----13-----13-----11----11----13-----13-----11-----11-----| ktr 2
D|----11----11----13-----13-----11-----11----13-----13-----11----11----13-----13-----11-----11--|
A|------9-----9-----11-----11-----9------9-----11-----11-----9-----9-----11-----11------9-----9-|
E|----------------------------------------------------------------------------------------------|


(toista kertaa soittaessa soinnut voi kuulostaa erilaisilta mutta 
 mielestäni se johtuu bassokitarasta)
E|-------------------------------------------------------------------|
B|-------------------------------------------------------------------|
G|-----------------3---------------------------------3---------------| ktr 1
D|-6---2-----------3---4-----------4---3-4-6-6-8-6-4-3---------------|
A|-6---2-2-2-2-2-2-1---4-4-4-4-4-4-2---1-2-4-4/6-4-2-1---4-4-4-4-4-4-|
E|-4---0-0-0-0-0-0-----2-2-2-2-2-2-2---1-2-4-4/6-4-2-----2-2-2-2-2-2-|
 |       . . . . .       . . . . .                       . . . . . . |
E|-------------------------------------------------------------------|
B|-------------------------------------------------------------------|
G|-----------------3-------------------3-4-6-6/8-6-4-3---------------| ktr 2 
D|-6---2-----------3---4-----------4---3-4-6-6/8-6-4-3---------------|
A|-6---2-2-2-2-2-2-1---4-4-4-4-4-4-2---1-2-4-4/6-4-2-1---4-4-4-4-4-4-|
E|-4---0-0-0-0-0-0-----2-2-2-2-2-2-2---------------------2-2-2-2-2-2-|
         . . . . .       . . . . .                       . . . . . .

E|---------------------------------------------------------|
B|---------------------------------------------------------|
G|---------------------------------------------------5-----| kitarat 1 & 2
D|-7-----------4-------------------------------------5---5-|
A|-7-----7-----4---4---4---4---3---3---3---3---------3---5-|
E|-5-----4-----2---2---2---2---1---1---1---1---0-0-0-----3-|
                   .   .   .   .   .   .   .   . . .
E|---------------------------------------------------------|
B|---------------------------------------------------------|
G|---------------------------------------------------------| kitarat 1 & 2
D|-7-----------4-------------------------------------------|
A|-7-----7-----4---4---4---4---3---3---3---3---2-2---2-2---|
E|-5-----4-----2---2---2---2---1---1---1---1---0-0---0-0---|
                   .   .   .   .   .   .   .   . .   . .
E|---------------------------------------------------------|
B|---------------------------------------------------------|
G|---------------------------------------------*-*---*-*---| kitarat 1 & 2
D|-7-----------4-------------------------------2-2---2-2---|
A|-7-----7-----4---4---4---4---3---3---3---3---2-2---2-2---| 
E|-5-----4-----2---2---2---2---1---1---1---1---0-0---0-0---|
                   .   .   .   .   .   .   .   . .   . .
                                        *=ktr 1 ei demppaa 


E|---------------------pp---pp---pp---pp--|
B|-12-0-11-0-10-0-9-0--650--650--650--650-|
G|----------------------------------------| ktr 1
D|----------------------------------------|
A|----------------------------------------|
E|----------------------------------------|
 |                                        |
E|---------------------pp---pp---pp---pp--|
B|--8-0--7-0--6-0-5-0--320--320--320--320-|
G|----------------------------------------| ktr 2
D|----------------------------------------|
A|----------------------------------------|
E|----------------------------------------|




E|--------------------------------------------------------------------------------------------|
B|--------------------------------------------------------------------------------------------|
G|-0-6-7--0-8-9--0-11-12----0-6-7--0-8-9--9/14-12----0-6-7--0-8-9--9-------0-6-7--0-8-9--9----| ktr 1
D|--------------------------------------------------------------------8---------------------8-|
A|--------------------------------------------------------------------------------------------|
E|--------------------------------------------------------------------------------------------|
 |                                                                                            |
E|--------------------------------------------------------------------------------------------|
B|--------------------------------------------------------------------------------------------|
G|--------------------------------------------------------------------------------------------| ktr 2
D|--------------------------------------------------------------------------------------------|
A|-0-6-7--0-8-9--0-11-12----0-6-7--0-8-9--9/14-12----0-6-7--0-8-9--9-------0-6-7--0-8-9--9----|
E|--------------------------------------------------------------------8---------------------8-|


E|----------------------------------------------------------------------------------|
B|----------------------------------------------------------------------------------|
G|----------------------------------------------------------------------------------| ktr 1 
D|-------------------------------------------------------------------------77777777-|
A|-22222222222222222222222222222222555555555555555555555555555555554444444455555555-| 
E|-000000000000000000000000000000003333333333333333333333333333333322222222---------|
 | .................................................................................|
E|----------------------------------------------------------------------------------|
B|----------------------------------------------------------------------------------|
G|-----------------989------------------------------------9-------------------------| ktr 2
D|---------------------989--912-1112----------------1012-----1210-9-----------------| 
A|------------------------10--------------------------------------------------------|
E|----------------------------------------------------------------------------------|
Joissakin kohtaa ktr 1 jättää soinnun demppaamatta mutta
sitä en viitsinyt tarkemmin ottaa selvää  
E|------------------------------------------|
B|------------------------------------------|
G|------------------------------------------| ktr 1
D|---------7777777744444444-----------------|
A|-4444444455555555222222225555555555555555-|
E|-22222222----------------3333333333333333-|
   ........................................


E|------------------------------------|
B|------------------------------------|
G|------------------------------------| ktr 1
D|-2----------------------------------|
A|-2----------------------------------|
E|-0----------------------------------|
 |                                    |
E|------------------------------------|
B|------------------------------------|
G|------------------------------------| ktr 2
D|----9-----------------9-------------|
A|----7-----------------7-------------|
E|-000----00000-000-0000----00000-000-|


E|----------------------------------------7--------------------------------|
B|--7-------6-------5-------7--------7---------7------6-------5-------6----|
G|-------------------------------------------------------------------------|
D|-------------------------------------------------------------------------|
A|-------------------------------------------------------------------------|
E|-------------------------------------------------------------------------|
 |                                                                         |
E|-------------------------------------------------------------------------|
B|-------------------------------------------------------------------------|
G|-------------------------------------------------------------------------|
D|-----9-----------------9-----------------9-----------------9-------------|
A|-----7-----------------7-----------------7-----------------7-------------|
E|-0000----00000-000-0000----00000-000-0000----00000-000-0000----00000-000-|


E|-----------------------------------------------|
B|-----------------------------------------------|
G|---------------7------------------------h------| ktr 1
D|-9-7----9-7------10-9--------------7-9-7-9-----|
A|-----10-----10--------10---10---10---------5---|
E|-----------------------------------------------|
 | . .  . . .  . .  . .                          |
E|-----------------------------------------------|
B|-----------------------------------------------|
G|--------------------------------5----------7---| ktr 2
D|-5-------------5----------------5----------7---| (en tiedä soitetaanko tuo kohta juuri
A|-5-------------5----------------3----------5---|  noilla soinnulla, ihan sama...)
E|-3-------------3-------------------------------|



Kannattaa ottaa huomioon että tabulatuurissa kitara 1 ja 2 ajoitukset eivät mene
täysin kohdilleen joissakin kohtaa enkä pyrkinyt muutenkaan esittämään tarkkoja aika-arvoja.




Tabulatuurin teki Tuomas Rönkkö. 
Добавлено: 29.11.2015
Другие материалы по этой песне:
  • Аккорды и текст

Страница создана 29.11.2015
http://primanota.ru/yup/rankat-ankat-chords.htm
Привет, Гость.
Предлагаем пройти революционный курс по гитаре.
Подарок от PrimaNota.Ru, забирай!