PrimaNota.ru - самый крупный в мире бесплатный архив песенных текстов, аккордов, табулатур и нот


Yup - Rakkaus On Pesti Hulluuteen - аккорды и текст, видео

Регистрация Запомнить меня
Войти через:  Facebook Google Twitter Vk Yandex Mail.ru

Yup - Rakkaus On Pesti Hulluuteen - аккорды и текст, видео

Печатать
Просмотров: 39
Rakkaus On Pesti Hulluuteen
Yup
Rakkaus on pesti hulluuteen
----------------------------
Tabulatuurin teki Olli Aimola (mikko.aimola@kolumbus.fi)

Intro:
| D# | F | G | Hm7 | Am7 |
   
                       e|-0---|
                       H|-1---|
                       G|-0---|
                       D|-2---|
                       A|-----|
                       E|-----|
      

SÄKEISTÖ(piano):

Cadd9            D              Cadd9           D
Meni turvallinen tiistai-päivä, tuikitavallinen keskiviikko, 
Cadd9            D                  Em              G 
tutta torstaikin taisi mennä koko viikko sitä samaa taas, rauha maas'...

   BRIDGE

      C               C/H        Am              Em   Hm          G             
   ...sinä saat minut kiehumaan, minä saan sinut kiehumaan, mutta yhdessä
         Em  Hm          C                Em | F  
    asutamme maan, jonka nimenä rakkaus on.

KERTOSÄE

G              D       Em    Hm              C5  H5    F5  E5       
Heee-eeee-eeee-eeeheee hulluuteen tällaiseen kerta kerran jälkeen
D5  A5 G        D            Em    Hm              C5  H5    F5  E5     D5  A5               
mukaan meee-eee-eee-eeeheeen hulluuteen tällaiseen kerta kerran jälkeen mukaan
  

VÄLISOITTO:

  Cadd9        D           Cadd9          D                  Cadd9
  meen...
e|------------10-10/12\10-----------------10-10/12\10---------------|
H|-8~~---------------------10-10/12\8-8----------------10-10/12~~~--|
G|------------------------------------------------------------------|
D|------------------------------------------------------------------|
A|------------------------------------------------------------------|
E|------------------------------------------------------------------|

    D                Em         G          Cadd9
e|-10-10/12\10-------10------------------------|
H|---------------10-----13p12--10-/--12--7-7h8-|
G|---------------------------------------------|
D|---------------------------------------------|
A|---------------------------------------------| 
E|---------------------------------------------| x2


2 SÄKEISTÖ:

Cadd9             D              Cadd9         D            Cadd9         D
Menee toraillessa tiistai-päivä, mykkäkoulussa keskiviikko, torstai on epätoivoa
          Em                 G
täynnä ja perjantaikin kovin pitkä.

         
                    Cadd9              D                    Cadd9            D       
                    Tästä kaikesta saa helposti kyllikseen: minne katsonkin, aina punaista 
e|----------------------------------------------------------------------------------------|
H|-7h8-\-7--5-----------------------------------------------------------------------------|
G|-------------7--4-----------------------------------------4-----------------------------|
D|-------------------------------7p5---4--------5----------------------7p5---4----5-------|
A|----------------------------------------------------------------------------------------|
E|----------------------------------------------------------------------------------------|

         Cadd9           D                              Em           G
   nään. Mun pää paisuu. Mä hakkaan sitä seinään - nään mustaa verkalleen...
e|---------------------------------------------------------------------------|
H|---------------------------------------------------------------------------|
G|-4-------------------------------------------------------------------------|
D|-------------------7p5----4------------5---------------------5-5h7---------|
A|------------------------------------------------------7------------5-------|
E|---------------------------------------------------------------------------|
                    Cadd9                   D          Cadd             D   
                    Kunnes taas ymmärretään toisiamme, kun on lämpöä ja tahtoa auttaa
e|-----------------------------------------------------------------------------------|
H|-7h8-\-7--5------------------------------------------------------------------------|
G|-------------7--7------------------------------------7-----------------------------|
D|----------------------------------10p9----7----9---------------10p9---7------9-----|
A|-----------------------------------------------------------------------------------|
E|-----------------------------------------------------------------------------------|
     Cadd9      D                             Em                  G 
  ja ymmärrystä niille, joilla on vain niiden tasainen kelkkamäki hautaan.
e|-------------------------------------------------------------------------|
H|-------------------------------------------------------------------------|
G|---7---------------------------------------------------------------------|
D|---------10p9-7--------------9-------------------------7-7h9-------------|
A|---------------------------------------------10-----------------10-------|
E|-------------------------------------------------------------------------|

   BRIDGE

   G              C                   C/H    Am              Em   Hm         
   Ja niinpä taas sinä saat minut juopumaan, minä saan sinut luopumaan, leikiten
   G                 Em  Hm        C              Em | F
   antautumaan tällä maalla, jonka nimenä rakkaus on.

C-OSA:

D#         F              G          Hm7           Hm7  Bbm7 Am7      Cm7     Em 
Eikä tässä yhtään missään ole mitään normaaliuteen viit--taa--vaa, rakkaus on pesti
F
hulluuteen...


KERTOSÄE
C-OSA
      Cm7     Em          F     Em    F       
...rakkaus on pesti hulluuteen, hulluuteee-ee-eeen.
KERTOSÄE


LOPPUSOITTO:

  Cadd9        D           Cadd9          D                  Cadd9
  meen...
e|------------10-10/12\10-----------------10-10/12\10---------------|
H|-8~~---------------------10-10/12\8-8----------------10-10/12~~~--|
G|------------------------------------------------------------------|
D|------------------------------------------------------------------|
A|------------------------------------------------------------------|
E|------------------------------------------------------------------|

    D                Em         G          Cadd9  2.maali: C | C/H Am | G | 
e|-10-10/12\10-------10------------------------|  
H|---------------10-----13p12--10-/--12--7-7h8-|  
G|---------------------------------------------|  
D|---------------------------------------------|  
A|---------------------------------------------| 
E|---------------------------------------------|x2
Добавлено: 10.05.2016
Другие материалы по этой песне:
  • Аккорды и текст

Страница создана 10.05.2016
http://primanota.ru/yup/rakkaus-on-pesti-hulluuteen-chords.htm
Привет, Гость.
Предлагаем пройти революционный курс по гитаре.
Подарок от PrimaNota.Ru, забирай!