PrimaNota.ru - самый крупный в мире бесплатный архив песенных текстов, аккордов, табулатур и нот


Yup - Me Olemme Yö - аккорды и текст, видео

Регистрация Запомнить меня
Войти через:  Facebook Google Twitter Vk Yandex Mail.ru

Yup - Me Olemme Yö - аккорды и текст, видео

Печатать
Просмотров: 143
Уроки эстрадного вокала в Санкт-Петербурге
Me Olemme Yö
Yup
ME OLEMME YÖ

 Am
Kas kas, keitäs onkaan täällä:

Em
onkos tämä herra kiltti

G
vai tunnottomiako taas

D      C      G      D
näillä tuonen teillä kohtaa?


Am(7)
oi-joi, on loppumaton lista

Em
tekosistaan petoksellisista:

G
satimeemme suden siis saimme, ja...

F#m    G      F#m
ketkäs sutten laumaa johtaa?


Hm   Hm/Bb  Hm/A      Hm/Ab
pikkuveikka skalppisi leikkaa, 

G           A      D        A
tekee tarkistuksia hiusrajoissa

Hm      Hm/Bb  Hm/A   Hm/Ab
heittää kuuman pätsin keskeen:

   Em       F#m     G       A      Dm
on pajoissa pahojen ikuinen katumustyö...


                           me olemme yö.
 Dm       Bb       G   Am  Bb  C    Dm       Bb       G         Am  
|-----------------|----------------|-----------------|------------------|
|----------------5|----------------|----------------5|------------------|
|7---7--6-7---7---|7-6-------------|7---7--6-7---7---|7-6---------------|
|-----------------|----8-7---------|-----------------|----8-7---7-------|
|-----------------|--------8-------|-----------------|---------7--------|
|-----------------|----------------|-----------------|------------------|

                           
 Am       Dm       F         Em         Am       F        Dm        Em  
|-----------------|--------------------|-----------------|-------------------|
|-----------------|----------5---------|-----------------|----------5--------|
|----------------4|5-4-----4-----4-----|----------------4|5-4-----4---4------|
|7---7--5-7---7---|----7-5---------7-5-|7---7--5-7---7---|----7-5-------7-5--|
|-----------------|--------------------|-----------------|-------------------|
|-----------------|--------------------|-----------------|-------------------|





Am
vaikka lempeä saneli se salo, 

Em
suloisuutta kuiski kotitalo, 

G
unohtuipa elämäsi valo, 

D      C     G    D
kuljit vihan valtakuntaan...


Am(7)
riitaa kylvit aina jonkun verran

Em
vaan tilit tasataan kerran:

G
olet vahva, mutta on voimia

F#m   G             F#m 
jollaisista et edes uskalla nähdä unta...


Hm   Hm/Bb  Hm/A      Hm/Ab
pikkuveikka skalppisi leikkaa,

G           A      D        A
tekee tarkistuksia hiusrajoissa,

Hm      Hm/Bb  Hm/A   Hm/Ab
heittää kuuman pätsin keskeen

   Em        F#m    G        A
ja kyklooppi gongia luullasi lyö.

Hm Hm/Bb  Hm/A    Hm/Ab
isoveikka lihaasi leikkaa,

G         A       D           A
ottaa olkapäistä, ottaa jaloista:

Hm         Hm/Bb    Hm/A  Hm/Ab
vilpeistä, vääristä valoista...

   Em       F#m     G       A      Dm
on pajoissa pahojen ikuinen katumustyö.



                           me olemme yö.
 Dm       Bb       G   Am  Bb  C    Dm       Bb       G         Am  
|-----------------|----------------|-----------------|------------------|
|----------------5|----------------|----------------5|------------------|
|7---7--6-7---7---|7-6-------------|7---7--6-7---7---|7-6---------------|
|-----------------|----8-7---------|-----------------|----8-7---7-------|
|-----------------|--------8-------|-----------------|---------7--------|
|-----------------|----------------|-----------------|------------------|

                           
 Am       Dm       F         Em         Am       F        Dm        Em  
|-----------------|--------------------|-----------------|-------------------|
|-----------------|----------5---------|-----------------|----------5--------|
|----------------4|5-4-----4-----4-----|----------------4|5-4-----4---4------|
|7---7--5-7---7---|----7-5---------7-5-|7---7--5-7---7---|----7-5-------7-5--|
|-----------------|--------------------|-----------------|-------------------|
|-----------------|--------------------|-----------------|-------------------|



                           
 Dm       Bb       G   Am  Bb  C    Dm       Bb       G         Am  
|-----------------|----------------|-----------------|------------------|
|----------------5|----------------|----------------5|------------------|
|7---7--6-7---7---|7-6-------------|7---7--6-7---7---|7-6---------------|
|-----------------|----8-7---------|-----------------|----8-7---7-------|
|-----------------|--------8-------|-----------------|---------7--------|
|-----------------|----------------|-----------------|------------------|

                           
 Am       Dm       F         Em        (Tahti 2/4) Am       Dm       F         Em  
|-----------------|--------------------|----------|-----------------|-------------------|
|-----------------|----------5----8----|----------|-----------------|----------5--------|
|----------------4|5-4-----4-----------|-----4----|----------------4|5-4-----4---4------|
|7---7--5-7---7---|----7-5-------------|-------7-5|7---7--5-7---7---|----7-5-------7-5--|
|-----------------|--------------------|----------|-----------------|-------------------|
|-----------------|--------------------|----------|-----------------|-------------------|


 Am       Dm       F         Em        (Tahti 2/4) Am       F        Dm         Em  
|-----------------|--------------------|----------|-----------------|--------------------|
|-----------------|----------5----8----|----------|-----------------|-----------5----8---|
|----------------4|5-4-----4-----------|-----4----|----------------4|5-4-----4-----------|
|7---7--5-7---7---|----7-5-------------|-------7-5|7---7--5-7---7---|----7-5-------------|
|-----------------|--------------------|----------|-----------------|--------------------|
|-----------------|--------------------|----------|-----------------|--------------------|

        Am
|7----------------|
|--10-8-10--------|
|-----------------|
|-----------------|
|-----------------|
|-----------------|




Tämän tabulaatuurin on tehnyt Jarkko Säkkinen.
Добавлено: 23.09.2015
Другие материалы по этой песне:
  • Аккорды и текст

Страница создана 23.09.2015
http://primanota.ru/yup/me-olemme-yo-chords.htm
Привет, Гость.
Предлагаем пройти революционный курс по гитаре.
Подарок от PrimaNota.Ru, забирай!