PrimaNota.ru - самый крупный в мире бесплатный архив песенных текстов, аккордов, табулатур и нот


Yup - Luotijuna - текст песни, таба, видео

Регистрация Запомнить меня
Войти через:  Facebook Google Twitter Vk Yandex Mail.ru

Yup - Luotijuna - текст песни, таба, видео

Печатать
Просмотров: 123
Уроки эстрадного вокала в Санкт-Петербурге
Авторы музыки: Valtteri Tynkkynen
Авторы текста: Jarkko Martikainen
LUOTIJUNA:
----------

INTRO:

e-------------------------------|
b-------------------------------|
g-------------------------------|
D-------------------------------|
A-7-----5---------------4h5-----|
E---0-0---6p5-3---0-4h5-----5p3-|
    . .

FILL IN: KITARA1
e---------------------------------------------------------------|
b---------------------------------------------------------------|
g---------------------------------------------------------------|
D---------------------------------------------------------------|
A----7-5--5--5-----7-5--5--5---------5---7----------------------|
E-5h7-7---------5h7-7-------------5h7---------------------------|

FILL IN: KITARA2
e---------------------------------------------------------------|
b---------------------------------------------------------------|
g----9--7---7--7------9--7--7--7------7-9-----------------------|
D-7h9-9-7---7--7---7h9-9-7--7--7---7h9--------------------------|
A---------------------------------------------------------------|
E---------------------------------------------------------------|

e----------------------------------------------------------------|
b----------------------------------------------------------------|
g----------------------------------------------------------------|
D-2--------------2----------------2------------------------------|
A-2--------------2----------------2------------------------------|
E-0----0-0-0-3-5-0------0-0-0-3-5-0------------------------------|
    PM|---------|    PM|-----------------------------------------|
  Suurvaltio...

e----------------------------------------------------------------|
b----------------------------------------------------------------|
g-7-------------7-------------7----------------------------------|
D-7-------------7-------------7----------------------------------|
A-5---5-5-5-----5---5-5-5-----5----------------------------------|
E-----------5-6-----------5-6------------------------------------|
   PM|---------| PM|---------------------------------------------|
  Kerskuu valloituksillaan..

CH:
e----------------------------------------------------------------|
b----------------------------------------------------------------|
g-------------------------------------2-------4-------5-------7--|
D---------5-/-7-------------------2-2-2---4-4-4---5-5-5---7-7-7--|
A-2-2-2---5-/-7---2-2-2---2-2-2---0-0-0---2-2-2---3-3-3---5-5-5--|
E-0-0-0---3-/-5---0-0-0---0-0-0----------------------------------|
PM-----|       PM|-------------------| PM|---| PM|---| PM|-------|
 Yötä, päivää...

e----------------------------------------------------------------|
b----------------------------------------------------------------|
g-------------------------------------9-------5-------7-------4--|
D---------5-/-7-------------------9-9-9---5-5-5---7-7-7---4-4-4--|
A-2-2-2---5-/-7---2-2-2---2-2-2---7-7-7---3-3-3---5-5-5---2-2-2--|
E-0-0-0---3-/-5---0-0-0---0-0-0----------------------------------|
PM-----|       PM|-------------------| PM|---| PM|---| PM|-------|
Kulkee luotijuna...
Добавлено: 23.09.2015
Другие материалы по этой песне:
  • Аккорды и текст

Страница создана 24.04.2012
http://primanota.ru/yup/luotijuna-chords.htm
Привет, Гость.
Предлагаем пройти революционный курс по гитаре.
Подарок от PrimaNota.Ru, забирай!