PrimaNota.ru - самый крупный в мире бесплатный архив песенных текстов, аккордов, табулатур и нот


Yup - Koiraöljyä - таба, видео

Регистрация Запомнить меня
Войти через:  Facebook Google Twitter Vk Yandex Mail.ru

Yup - Koiraöljyä - таба, видео

Печатать
Просмотров: 95
KOIRAÖLJYÄ:
-----------

e---------------------------------|
b---------------------------------|
g-----77778888--------77778888----|
D-55557777888866665555777788886-6-|
A-55555555666666665555555566666-6-|
E-3333--------44443333--------4-4-|

e--------------------------------|--------|-----------|
b--------------------------------|--------|-----------|
g---------------7-77-7----------9|--------|-----------|
D-7--7-7-7--7-7-7-77-7-9--9-9-9-9|-2223-2-|-9-9-9---9-|
A-7--7-7-7--7-7-5x55-5-9--9-9-9-7|-2223-2-|-7-7-788-7-|
E-5-x5-5-5-x5-5--------7-x7-7-7--|-0001-0-|-----------|
Helottelee  heleä päivä...

e-----------------------------------------------------------|
b-----------------------------------------------------------|
g-----------------------------------------------------------|
D-777777776666666655555555-----777777776666666655555555-----|
A-555555554444444433333333-----5555555544444444333333335-45-|
E-------------------------3-23-------------------------3-23-|
  Tule, laita ruohoa suuhuni...

HIDAS:             SOOLO(?)
e-----------------|---------------------------------------------------|
b-----------------|---------------------------------------------------|
g-----------------|-9p7h9--(9p7h9)--9p7h9-7-4-2h3-4-(9p7h9-7-4-2h3-4)-|
D---2---3---2---3-|---------------------------------------------------|
A--2-2-3-3-2-2-3-3|---------------------------------------------------|
E-0---1---0---1---|---------------------------------------------------|

e------------------------------------------------------------------------------|
b-------5--------------5-------------------------------------------------------|
g-2h3h4---4h5-4-(2h3h4---4h5-4)---2h3p2--------2h3p2------4-4-4-4-4-4-4-4------|
D-------------------------------2-------3-2-(2-------3-2)-2-2-2-2-2-2-2-2------|
A-------------------------------.------------.------------.-.-.-.-.-.-.-.------|
E------------------------------------------------------------------------------|

e----------------------------------------------------|
b----------------------------------------------------|
g----------------------------------------------------|
D-2-2----3---2-2-----3--2--------------------2---3---|
A-2-2----3---2-2-----3--2---2-2-2--2-2-2-2-2-2---3---|
E-0-0----1---0-0-----1--0---0-0-0--0-0-0-0-0-0---1---|
  MITÄ HELVETTIÄ!?          . . .  . . . . .    MITÄ?

e---------------------------------|
b---------------------------------|
g---------------------------------|
D-9---9---7---7---4---4---5---5-7-|
A-7---7---5---5---2---2---3---3-5-|
E---------------------------------|


e-----------------------------------------------------|
b-----------------------------------------------------|
g----------7-------------7------------------5-5-5-5-5-|
D-5---7----7------5---7--7-----5---7--8-----5-5-5-5-5-|
A-5---7----5------5---7--5-----5---7--8-----3-3-3-3-3-|
E-3---5-----------3---5--------3---5--6---------------|
  Vi-ihani on...  sammumaton.. loppumaton.. UNOHTUMATON!
Добавлено: 23.09.2015
Другие материалы по этой песне:
  • Аккорды и текст

Страница создана 23.09.2015
http://primanota.ru/yup/koiraoljya-chords.htm
Привет, Гость.
Предлагаем пройти революционный курс по гитаре.
Подарок от PrimaNota.Ru, забирай!