PrimaNota.ru - самый крупный в мире бесплатный архив песенных текстов, аккордов, табулатур и нот


Yup - Homo Sapiens - таба, видео

Регистрация Запомнить меня
Войти через:  Facebook Google Twitter Vk Yandex Mail.ru

Yup - Homo Sapiens - таба, видео

Печатать
Просмотров: 100
Авторы музыки: Valtteri Tynkkynen, Jarkko Martikainen
Авторы текста: Jarkko Martikainen
HOMO SAPIENS

 p=pull-off
h=hammer-on
hb=venytä puolisävelaskelta
fb=venytä kokosävelaskel
+r=vapauta venytyksestä alkuperäiseen säveleen
/\ =liuku
.=demppaus


riffi 1 x2
E|-----------------------------------------------------6-------9---|
B|-3---3h5-3---------------x---8\--3-3-3-3-3-3-3-3-6-6-----9-9-----|
G|-0---0(0)0---0---4-2-0---x---7\--0-0-0-0-0-0-0-0-3-3-----6-6-----|
D|-----------------------------------------------------------------|
A|-----------------------------------------------------------------|
E|-----------------------------------------------------------------|
 |             .           .                                       |
E|-----------------------------------------------------------------|
B|-----------------------------------------------------------------|
G|-----------------------------------------------------------------|
D|-----------------------------------------------------------------|
A|-5---5-5-5---5---5-5-5---5---2---5-5-5-5-5-5-5-5-8-8-8-811111111-|
E|-3---3-3-3---3---3-3-3---3---0---3-3-3-3-3-3-3-3-6-6-6-6-9-9-9-9-|
   .   . . .   .   . . .   .       . . . . . . . . . . . . . . . .
                                                                            *=pieni liuku
E|-------------------------------------------------------------------------------*----------|
B|-----------------*****---4---3---8---6-6-6-6-9-9-9-912121212-1515151515151515151212--11---|
G|-0---0-3-0---6---3hb+r---5---4-----7-3-3-3-3-6-6-6-6-9-9-9-9-121212121212121212-9-9---9---|
D|------------------------------------------------------------------------------------------|
A|------------------------------------------------------------------------------------------|
E|------------------------------------------------------------------------------------------|
 |*=venytyksen jälkeen pull-off vapaalle kielelle                                       
    |
E|------------------------------------------------------------------------------------------|
B|------------------------------------------------------------------------------------------|
G|------------------------------------------------------------------------------------------|
D|-----------------------------------------------------9-9-9-9-121212121212121212-9-9---8---|
A|-5---5-5-5---5---5-5-5---5---2---5-5-8-8-8-811111111-7-7-7-7-101010101010101010-7-7---7---|
E|-3---3-3-3---3---3-3-3---3---0---3-3-6-6-6-6-9-9-9-9--------------------------------------|
   .   . . .   .   . . .   .       . . . . . . . . . . . . . . . . . . . . . . .  . .

riffi 2
E|-6---------------6---------------------------------6---------------6--------------10101010-9-|
B|-8-------8-------8-------8-------8-----11-10-------8-------8-------8-------8------10101010-9-|
G|-----0---7*--0-------0---7*--0-----7-8-------7hb+r-----0---7*--0-------0---7*--0-------------|
D|---------------------------------------------------------------------------------------------|
A|---------------------------------------------------------------------------------------------|
E|---------------------------------------------------------------------------------------------|
       .       .       .       .                         .       .       .       .
*=venytä G-kieltä kevyesti


riffi 3.1 x3
E|-6-----6-----6-----5-----6-----6-----5---5---5---5---4--------------------------|
B|-8-----8-----8-----7-----8-----8-----7---7---7---7---6--------------------------|
G|-7-----7-----7-----7-----7-----7-----7---7---7---7---6------3---------------6---| Kitara1
D|----------------------------------------------------------------5---4---5-------|
A|--------------------------------------------------------------------------------|
E|--------------------------------------------------------------------------------|
                                                           E|---------------------|
                                                           B|---------------------|
                                                           G|---------------------| Kitara2
                                                           D|-3---------------6---|
                                                           A|-1---5---4---5---4---|
                                                           E|-----3---2---3-------|


riffi 3.2
E|------------------------------------------------------------------------------|
B|------------------------------------------------------------------------------|
G|-------------------------------------------------7-7-7-7-6------7-7-7-7-6-6---| Kitara 1
D|-------------------------7-7-7-7-----------------7-7-7-7-6------7-7-7-7-6-6---|
A|-5-5-5-5-5-5-5-5-5-5-5-5-5-5-5-5-5-5-5-5-5-5-5-5-5-5-5-5-4------5-5-5-5-4-4---|
E|-3-3-3-3-3-3-3-3-3-3-3-3---------3-3-3-3-3-3-3-3------------------------------|
 | . . . . . . . . . . . . . . . . . . . . . . . .
E|--10--10--10--10--10--10----------10--10--10--10-|
B|--11--11--11--11--11--11--10--10--11--11--11--11-|
G|--12--12--12--12--12--12--11--11--12--12--12--12-| Kitara 2 ilman säröä. Jokainen merkitty
D|--------------------------12--12-----------------| sointu soitetaan kahdesti ja jatkuu sitten
A|-------------------------------------------------| kuten merkitty kitara ykköselle.
E|-------------------------------------------------|

riffi 4.1
E|---------3---------------2---------------0---------------0-------|
B|-----3-----3---------3-----3---------0-----0---------2-----2-----|
G|---4---4-----4-----2---2-----2-----0---0-----0-----3---3-----3---|
D|-5-------------5-4-------------4-2-------------2-0-------------0-|
A|-----------------------------------------------------------------|
E|-----------------------------------------------------------------|
   . . . .   . . . . . . .   . . . . . . .   . . . . . . .   . . . (kevyt demppaus)

E|-----------------------------------|
B|---------5---------------7---------|
G|-----5-----5---------7-----7-------|
D|---5---5-----5-----7---7-----7-5---|
A|-3-------------3-5-------------5---|
E|-------------------------------3---|
   . . . . . . . . . . . . . . .


riffi 4.2
E|1010101010101010101010101010101010101010101010101010101010101010-8-8-8-8-8-8-8-8-|
B|-8-8-8-8-8-8-8-8-8-8-8-8-8-8-8-8-8-8-8-8-8-8-8-8-8-8-8-8-8-8-8-8-8-8-8-8-8-8-8-8-|
G|---------------------------------------------------------------------------------|
D|---------------------------------------------------------------------------------|
A|---------------------------------------------------------------------------------|
E|---------------------------------------------------------------------------------|

E|-5-5-5-5-5-5-5-5-| (lopusta en saa täysin selvää, saattaa olla pelkkiä voimasointuja
B|-3-3-3-3-3-3-3-3-|  mutta efekti siinä kuulostaa olevan)
G|-----------------|
D|-----------------|
A|-----------------|
E|-----------------|

riffi 4.3
E|-------------------------------------------------------|
B|-------------------------------------------------------|
G|--------7------9------7--------0----0--2---2---7---7---|
D|-5------7------9------7-------2---0----2---2---7---7---|
A|-5------5------7------5------3---2-----0---0---5---5---|
E|-3-----------------------------------------------------|


riffi 4.4(toinen kitara soittaa edelleen riffi 4.3)
E|-------17fb+r-15-----12fb+r-10------12fb+r-15---12\10-10---------------------------|
B|-------------------------------------------------------------------8-------8-------|
G|-----------------------------------------------------------------9-------9---------|
D|--------------------------------------------------------------10-------9-------7---|
A|-------------------------------------------------------------------------------7---|
E|-1-2---------------------------------------------------------------------------5---|
   . .                                                           . .     . .


E|-10---10-10-10---10---/13---|
B|-10---10-10-10---10---/13---|
G|----------------------------|
D|----------------------------|
A|----------------------------|
E|----------------------------|
 |                            |
E|----------------------------|
B|----------------------------|
G|-7----7--7--7----7---/10----|
D|-7----7--7--7----7---/10----|
A|-5----5--5--5----5---/-8----|
E|----------------------------|


riffi 1  x2   (pikku muutoksia mutta merkitsempä ne kuitenkin)
E|-----*****-------------------------------------------6-------9---| *=ei soi toisella kerralla
B|-3--(3h5-3)--------------x---8\--3-3-3-3-3-3-3-3-6-6-----9-9-----|
G|-0---0-0-0---0---4-2-0---x---7\--0-0-0-0-0-0-0-0-3-3-----6-6-----|
D|-----------------------------------------------------------------|
A|-----------------------------------------------------------------|
E|-----------------------------------------------------------------|
 |             .           .                                       |
E|-----------------------------------------------------------------|
B|-----------------------------------------------------------------|
G|-----------------------------------------------------------------|
D|-----------------------------------------------------------------|
A|-5---5-5-5---5---5-5-5---5---2---5-5-5-5-5-5-5-5-8-8-8-811111111-|
E|-3---3-3-3---3---3-3-3---3---0---3-3-3-3-3-3-3-3-6-6-6-6-9-9-9-9-|
   .   . . .   .   . . .   .       . . . . . . . . . . . . . . . .
                                                                            *=pieni liuku
E|-------------------------------------------------------------------------------*----------|
B|-----------------*****---4---3---8---6-6-6-6-9-9-9-912121212-1515151515151515151212--11---|
G|-0---0-3-0---6---3hb+r---5---4-----7-3-3-3-3-6-6-6-6-9-9-9-9-121212121212121212-9-9---9---|
D|------------------------------------------------------------------------------------------|
A|------------------------------------------------------------------------------------------|
E|------------------------------------------------------------------------------------------|
 |*=venytyksen jälkeen pull-off vapaalle kielelle                                       
    |
E|------------------------------------------------------------------------------------------|
B|------------------------------------------------------------------------------------------|
G|------------------------------------------------------------------------------------------|
D|-?????????-------------------------------------------9-9-9-9-121212121212121212-9-9---8---|
A|-5---5h7-5---5---5-5-5---5---2---5-5-8-8-8-811111111-7-7-7-7-101010101010101010-7-7---7---|
E|-------------3---3-3-3---3---0---3-3-6-6-6-6-9-9-9-9--------------------------------------|
               .   . . .   .       . . . . . . . . . . . . . . . . . . . . . . .  . .
riffi 1  2x
riffi 2
riffi 3.1  (jätä loppu pois)
riffi 3.2
riffi 4.1
riffi 4.2
riffi 4.3 2x (toisella kerralla toinen kitara soittaa riffi 4.4)

riffi 5  4x (toinen kitara tulee mukaan toisen kerran jälkeen)
E|-------------------------------------------------|
B|-----------------2h3p2---4---------------3p1-----|
G|---------2---3---------3(3)---3---2----------2---| kitara 1
D|-5p3----------------------------------3--------3-|
A|-----4-5-----------------------------------------|
E|-------------------------------------------------|
 |                                1.               | 2.
E|-------------------------------|-----------------|-----------------|
B|-------------------------------|-----------------|-----------------|
G|-------------------------3---3-|-2---2-----------|-5---5-----------|kitara
D|---------6---6-----------1---1-|-0---0---3-3-3-3-|-3---3---0-0-0-0-|
A|---------4---4---1-1-1-1-------|-----------------|-----------------|
E|-3-3-3-3-----------------------|-----------------|-----------------|


riffi 4.1
riffi 4.2
riffi 4.3 2x (toisella kerralla toinen kitara soittaa riffi 4.4)

jatkoa riffille 4.4
E|------------------------------------------------|
B|------8-------8---------------------------------|
G|----9-------9--------9---7---5---4---2-----/5---|
D|-10-------9------7------------------------------|
A|-----------------7------------------------------|
E|-----------------5------------------------------|


outro (toinen kitara soittaa demppattuna G5:sta, kuuntele CD:tä)
E|----------------------13-13------------------|
B|-15-15-15-15-15-15-15-------13-13-13h14------|
G|-12-12-12-12-12-12-12-------------------12---|
D|---------------------------------------------|
A|---------------------------------------------|
E|---------------------------------------------|

E|-----------------------------------------------------------------------------------------|
B|-14-14-14-14\11-11-11-11/14-14-14-14\11-11-----------------------------------------------|
G|-13-13-13-13\10-10-10-10/13-13-13-13\10-10---12-12-12-12-12-12-12-10-12-12-12-11/14-14---|
D|------------------------------------------------12-12-12-12-12-12----12-12-12-10/13-13---|
A|-----------------------------------------------------------------------------------------|
E|-----------------------------------------------------------------------------------------|

E|------------------------------------------------------------------13-13------------------|
B|-14-14-14-14\11-11-11-11/14-14-14-14\11-11---15-15-15-15-15-15-15-------13-13-13h14------|
G|-13-13-13-13\10-10-10-10/13-13-13-13\10-10---12-12-12-12-12-12-12-------------------12---|
D|-----------------------------------------------------------------------------------------|
A|-----------------------------------------------------------------------------------------|
E|-----------------------------------------------------------------------------------------|

E|-----------------------------------------------------------------------------------------|
B|-14-14-14-14\11-11-11-11/14-14-14-14\11-11-----------------------------------------------|
G|-13-13-13-13\10-10-10-10/13-13-13-13\10-10---12-12-12-12-12-12-12-10-12-12-12-11/14-14---|
D|------------------------------------------------12-12-12-12-12-12----12-12-12-10/13-13---|
A|-----------------------------------------------------------------------------------------|
E|-----------------------------------------------------------------------------------------|

E|---------------------------------------------15-------------------13-13------------------|
B|-14-14-14-14\11-11-11-11/14-14-14-14\11-11------15-15-15-15-15-15-------13-13-13h14------|
G|-13-13-13-13\10-10-10-10/13-13-13-13\10-10------12-12-12-12-12-12-------------------12---|
D|-----------------------------------------------------------------------------------------|
A|-----------------------------------------------------------------------------------------|
E|-----------------------------------------------------------------------------------------|
                                                                                         
  |
                                            E|---------------------------------------------|
                                            B|---------------------------------------------|
                                            G|---------------------------------------------|
                                            D|--5--5--5--5--5--5--5--3--3------------------|
                                            A|-----------------------------3--3--3h4--5----|
                                            E|----------------------------------------3----|

Huh huh...


Tekijä : Tuomas Rönkkö
Добавлено: 23.09.2015
Другие материалы по этой песне:

Страница создана 16.05.2012
http://primanota.ru/yup/homo-sapiens-chords.htm
Привет, Гость.
Предлагаем пройти революционный курс по гитаре.
Подарок от PrimaNota.Ru, забирай!