PrimaNota.ru - самый крупный в мире бесплатный архив песенных текстов, аккордов, табулатур и нот


Yup - älä Astu Kauppiaan Päälle - таба, видео

Регистрация Запомнить меня
Войти через:  Facebook Google Twitter Vk Yandex Mail.ru

Yup - älä Astu Kauppiaan Päälle - таба, видео

Печатать
Просмотров: 92
ÄLÄ ASTU KAUPPIAAN PÄÄLLE

 p=pull-off
h=hammer-on
/\=slide
<>= keinotekoinen huiluääni
tr=trilli
.=demppaus
~=vibraatto


E|---------------------------------------------------------|
B|---------------------------------------------------------|
G|-3------4---6---4----------------3~------4~--6~--4~------|
D|------------------5------4h5-----------------------------|
A|---------------------------*-----------------------------|
E|---------------------------------------------------------|

            * = laske hitaasti vibrakammella ½-sävelaskelta

E|-----------------------------------------------------------|
B|--------------------------------------------------------tr-|
G|-3------<4><6>---4----------------3~------4~--6~--4~---4(6)|
D|-------------------5------4h5------------------------------|
A|----------------------------*------------------------------|
E|-----------------------------------------------------------|

            * = laske hitaasti vibrakammella ½-sävelaskelta


                                                   1.                2.
E|------------------------------------------------|-----------------|-----------------|
B|------------------------------------------------|-----------------|-----------------|
G|------------------------------------------------|-----------------|-----------------|
D|-*-------------------------------*--------------|-----------------|-5-5-5-5-5-5-5-5-|
A|-2-2-2-2-2-2-2-2-2-2-2-2-2-2-2-2-5-5-5-5-5-5-5-5|-5-5-5-5-5-5-5-5-|-5-5-5-5-5-5-5-5-|
E|-0-0-0-0-0-0-0-0-0-0-0-0-0-0-0-0-3-3-3-3-3-3-3-3|-3-3-3-3-3-3-3-3-|-3-3-3-3-3-3-3-3-|
   . . . . . . . . . . . . . . . .   . . . . . . . . . . . . . . .
                                   *=demppaa toisella kerralla

kertosäe

(molemmat kitarat loppuvat samaan aikaan vaikkei nuotin mukaan siltä näytä)

E|--------------------------------------------------------------------|
B|-7---7---9p7-----7---7---10p7----7---7---9p7--------7-9-10-9-7----7-|
G|-------------9p7-------------9p7-------------9p7-10------------10---|kitara 1  w\ wah
D|--------------------------------------------------------------------|
A|--------------------------------------------------------------------|
E|--------------------------------------------------------------------|
 |
E|-----------------------------------------------------------------|
B|-----------------------------------------------------------------|
G|-4---4-----------4---4-----------4---4-----------7-7-7-7-7-7-7-7-|
D|-4---4-----------4---4-----------4---4-----------7-7-7-7-7-7-7-7-|
A|-2---2-------2-3-2---2-------2-3-2---2-------2-3-5-5-5-5-5-5-5-5-|
E|---------2-5-------------2-5-------------2-5---------------------|


 akustinen kohta (aika vaikea saada kaikkia säveliä joten tämä on aika pelkistetty)

E|-------3---------------3------------------|
B|---------6-5-3-----------6-5-3------------|
G|---------------5-4-------------5-4--------|
D|-----3---------------3-------------jne...-|
A|-*-5---------------5----------------------|
E|(3)---------------------------------------|

 *=soi ainoastaan kerran, toistaessa tilalle B-sävel G-kieleltä. Sama homma 
siirtyessä A:han

E|-----------------------------------------------------------------|
B|-----------------------------------------------------------------|
G|-----------------5-5-5-5-5-5-5-5---------------------------------|
D|-4-4-4-4-4-4-4-4-3-3-3-3-3-3-3-3-4-4-4-4-4-4-4-4-----------------|
A|-2-2-2-2-2-2-2-2-----------------2-2-2-2-2-2-2-2-3-3-3-3-3-3-3-3-|
E|-------------------------------------------------1-1-1-1-1-1-1-1-|
 |                                                                 |
E|-----------------------------------------------------------------|
B|-------------------------5-------------------------------5-------|
G|-----4-------4---------4---4---------4-------4---------4---4-----| en ole tästä varma
D|---4---4---4---4-3---3-------3-----4---4---4---4-3---3-------3---|
A|-2-------2---------3-----------3-2-------2---------3-----------3-|
E|-----------------------------------------------------------------|

E|---------------------------------------------------------------------|
B|---------------------------------------------------------------------|
G|---------------------------------------------------------------------|
D|-5-5-5-5-5-5-5-5/7-5-5-5-5/8-5-5-5-5-2-2-2-2-2-2-2-2-2-2-2-2-2-2-2-2-|
A|---------------------------------------------------------------------|
E|---------------------------------------------------------------------|

E|-----------------|
B|-----------------|
G|---9---9---8---8-|
D|-----9---8---8---|
A|-7---------------|
E|-----------------|

E|-------------------------------------|
B|-------------------------------------|
G|-3-----------------------------------|
D|-3-------2------5------3-4---5---6---|
A|-1-------2------5------3-4---5---6---|
E|---------0------3--------------------|


E|---------------------------------------------------------------|
B|---------------------------------------------------------------|
G|-3333333333333333----------------------------------------------|
D|-33333333333333332222222222222222555555555555555-3-4---5---6---|
A|-11111111111111112222222222222222555555555555555-3-4---5---6---|
E|-----------------0000000000000000333333333333333---------------|

E|-----------------------------------------------------------------------|
B|-----------------------------------------------------------------------|
G|-----------------------------------------------------------------------|
D|-5-5-5-5-5-5-5-5/7-5-5-5-5/8-5-5-5-5-----------------------------------|
A|-------------------------------------7-7-7-7-7-7-7-7-5h7-7-7-7-7-7-7-7-|
E|-----------------------------------------------------------------------|
 |                                                                       |
E|-----------------------------------------------------------------------|
B|-11------12---14---12---------------11------12---14---12---------------|
G|------------------------12---------------------------------------------|
D|-----------------------------------------------------------------------|
A|-----------------------------------------------------------------------|
E|-----------------------------------------------------------------------|

E|---------------------------------------------------------------|
B|---------------------------------------------------------------| viimeisellä toistolla E:tä
G|---------------------------------------------------------------| ei dempata
D|---------------------------------------------------------------|
A|-5---5---5---5---5---5---5---5---2---2---2---2---2---2---2---2-|
E|-3---3---3---3---3---3---3---3---0---0---0---0---0---0---0---0-|
 | .   .   .   .   .   .   .   .   .   .   .   .   .   .   .   . |
E|---------------------------------------------------------------|
B|-11-----12--14--12--------------15--15--12--11--12-------------|
G|---------------------12----------------------------------------|
D|---------------------------------------------------------------|
A|---------------------------------------------------------------|
E|---------------------------------------------------------------|

E|-----------------|
B|-----------------|
G|-----------------|
D|-----9-------9---|
A|-9---7---9---7---|
E|-7-------7-------|

E|-----------------------------------------------------------------|
B|-----------------------------------------------------------------|
G|-3333333333333333------------------------------------------------|
D|-333333333333333322222222222222225555555555555555222222222222222-|
A|-111111111111111122222222222222225555555555555555222222222222222-|
E|-----------------00000000000000003333333333333333000000000000000-|


E|-7-------------------------------------------------------|
B|-----8---------------------------------------------------|
G|-------9-------------------------------------------------|
D|-----------9------5--------------------------------------|
A|----------------------7---5------7----8------5---7---8---|
E|---------------------------------------------------------|
 |                                                         |
E|---------------------------------------------------------|
B|---------------------------------------------------------|
G|---------------------------------------------------------|
D|-9---------12-------------7------------------------------|
A|-7---------10-------------5------------------------------|
E|---------------------------------------------------------|

E|------------------------------------------|---|
B|-8---10p8-------8---10p8-------8---10p8---|-8-|
G|---------9--------------9--------------9--|---|
D|------------------------------------------|---|
A|------------------------------------------|---|
E|------------------------------------------|---|
 |                                          |
E|------------------------------------------|
B|------------------------------------------|
G|-3-------5---------------------5-------7--|
D|-3-------5------5-------7------5-------7--|
A|-1-------3------5-------7------3-------5--|
E|----------------3-------5-----------------|


 volume kasvaa
E|-----------------|
B|-----------------|
G|-----------------|
D|-5-5-5-5-5-5-5-5-|
A|-5-5-5-5-5-5-5-5-|
E|-3-3-3-3-3-3-3-3-|

rytmitys ei ole kohdallaan ja näyttää aika karkeasti soinnut...
E|-----------------------------------------------------------------------------------------|
B|-----------------------------------------------------------------------------------------|
G|-----5---------------------5---------------------3---------------------3-----------------|
D|-7---5-5---7---5-5-7---7---5-5---7---7---6---5---3-3---5---3-3-5---5---3-3---5-------5---|
A|-7---3-5---7---5-5-7---7---3-5---7---7---6---5---1-3---5---3-3-5---5---1-3---5---5-5-5---|
E|-5-----3---5---3-3-5---5-----3---5---5---4---3-----1---3---1-1-3---3-----1---3---3-3-3---|
                                                                                   . .

tämäkin kohta on vähän lottoamalla tehty
E|-----------------------------------------------------------------|
B|-------------------------5-------------------------------5-------|
G|-----4-------4---------4---4---------4-------4---------4---4-----|
D|---4---4---4---4-3---3-------3-----4---4---4---4-3---3-------3---|
A|-2-------2---------3-----------3-2-------2---------3-----------3-|
E|-*-------*-----------------------*-------*-----------------------|
 |                                                                 |
E|-----------------------------------------------------------------|
B|-------------------6---------------------------------------------|
G|-4-----------------5-------------4-------------------------------|
D|-4-----------------3-------------4-----------------3-------------|
A|-2-------------------------------2-----------------3-------------|
E|---------------------------------------------------1-------------|
*=välillä 0h2, jolloin D-kieltä ei soiteta, muistaakseni...


E|--------------------------------------------------------------------|
B|--------------------------------------------------------------------|
G|--------------------------------------------------------------------|
D|-5-5-5-5-5-5-5-5/7-5-5-5-5/8-5-5-5----------------------------------|
A|-----------------------------------7-7-7-7-7-7-7-7-777\\\\\\\\\\\\\-|
E|--------------------------------------------------------------------|

E|---------------------------------------------------------------------|
B|---------------------------------------------------------------------|
G|---------------------------------------------------------------------|
D|-5---5---5---5------5---5---5---5-5---5---5---5------5---5---5---5-5-|
A|-5---5---5---5------5---5---5---5-5---5---5---5------5---5---5---5-5-|
E|-3---3---3---3------3---3---3---3-3---3---3---3------3---3---3---3-3-|

E|------------------------------------------|--------|
B|-8---10p8-------8---10p8-------8---10p8---|-15b17~-|
G|---------9--------------9--------------9--|--------|
D|------------------------------------------|--------|
A|------------------------------------------|--------|
E|------------------------------------------|--------|
 |                                          |        |
E|------------------------------------------|--------|
B|------------------------------------------|--------|
G|-3-------5---------------------5-------7--|--------|
D|-3-------5------5-------7------5-------7--|-9------|
A|-1-------3------5-------7------3-------5--|-7------|
E|----------------3-------5-----------------|-0------|

Apuna tämän nuotin tekemiseen käytin toista netistä löytynyttä nuottia.
Kiitos sen nuotin tekijälle, kuka lie onkaan.

HUOM! En ole sen kummemmin käynyt läpi ja tarkistanu mitä tähän on tultu kirjoitettua
      joten mokia on. Korjatkaa oman mielenne mukaan.
Добавлено: 23.09.2015
Другие материалы по этой песне:
  • Аккорды и текст

Страница создана 23.09.2015
http://primanota.ru/yup/ala-astu-kauppiaan-paalle-chords.htm
Привет, Гость.
Предлагаем пройти революционный курс по гитаре.
Подарок от PrimaNota.Ru, забирай!