PrimaNota.ru - самый крупный в мире бесплатный архив песенных текстов, аккордов, табулатур и нот


Yui - Summer Song - аккорды и текст, видео

Регистрация Запомнить меня
Войти через:  Facebook Google Twitter Vk Yandex Mail.ru

Yui - Summer Song - аккорды и текст, видео

Печатать
Просмотров: 247
Авторы музыки: YUI
Авторы текста: YUI
Summer Song
Yui
Yui-Summer Song

Dsus2 - xx0230
Cadd9/B - x20010
Am7 - x02010
Cadd9 - x32030

Intro:
Dsus2
G C Cadd9/B Am7
G C Cadd9/B Am7
---------------------------------------0---------------0-------------------------0-------------------
-----------3-----------3-----------3-------3---------3--------1-----1----------3--------1-----1------
---------0---0-------0---0-------0---0---0---------0-------------------------0-----------------------
-2-2-0h2-------2-0h2-------2-0h2---------------0h2----------2-----0------0h2----------2-----0--------
----------------------------------------------------------3-----2-----0-------------3-----2-----0----
-----------------------------------------------------------------------------------------------------

Verse:
G Dsus2 Cadd9 (x2)
Em C G Dsus2 (x3)
F Dsus2

-----------------------------0--------------------
-----3-----3-3/5-5-5\3-3--------------------------
-------0h2---2/4---4\2----------------------------
-0h2---------------------0h2----------------------
--------------------------------------------------
--------------------------------------------------

Chorus:
G D Am C (x4)

Dsus2 C Dsus2 C Cadd9/B Am7

-----------0--------------0--------------0-------------------
-------3-----3--------3-----3--------3-----3------1-----1----
-----0---0----------0---0----------0---0---------------------
-0h2------------0h2------------0h2--------------2-----0------
----------------------------------------------3-----2-----0--
-------------------------------------------------------------

repeat Verse

repeat Chorus

Bridge:
Em C G D
Em C D (x3)

----------------------------------------------------
-------0-------0-------0--------------0-------0-----
-----0-------0-------0--------------0-------0-------
-0h2-----0h2-----0h2------0h2---0h2-----0h2---------
----------------------------------------------------
----------------------------------------------------


-----------------------------0--------------------
-----3-----3-3/5-5-5\3-3--------------------------
-------0h2---2/4---4\2----------------------------
-0h2---------------------0h2----------------------
--------------------------------------------------
--------------------------------------------------

repeat Chorus (x2)
G


Chords & Tabs by,
tsunvun86
--------------------------------------------------------------------------------
*NON CAPO USERS*
Here are the actual chords without using a capo. Take note that you can't do
some of the chords since u're playing different chords now(um i dunno how to
explain this) n would be harder to play as you might need to use barre chords
for most of them. (That's why she used a capo :P)


YUI - SUMMER SONG

Ebsus2 - x68866

Intro:
Ebsus2
G# C#
G# C#

Verse:
G# Ebsus2 C# (x2)
Fm C# G# Ebsus2 (x3)
F# Ebsus2

Chorus:
G# Eb Bbm C# (x4)

Ebsus2 C# Ebsus2 C#

repeat Verse

repeat Chorus

Bridge:
Fm C# G# Eb
Fm C# Eb (x3)

repeat Chorus (x2)
G#

Heey Guys^^
This is my first upload hope You Guys like it^^
Have Fun ^^ 
Greetz Roxiii^^
Добавлено: 10.10.2013
Другие материалы по этой песне:
  • Аккорды и текст

Страница создана 05.07.2013
http://primanota.ru/yui/summer-song-chords.htm
Привет, Гость.
Предлагаем пройти революционный курс по гитаре.
Подарок от PrimaNota.Ru, забирай!