PrimaNota.ru - самый крупный в мире бесплатный архив песенных текстов, аккордов, табулатур и нот


Yuck - Rebirth - аккорды и текст, видео

Регистрация Запомнить меня
Войти через:  Facebook Google Twitter Vk Yandex Mail.ru

Yuck - Rebirth - аккорды и текст, видео

Печатать
Просмотров: 126
Уроки эстрадного вокала в Санкт-Петербурге
Авторы: Max Bloom

Rebirth
Yuck
-------------------------------------------------------------------------------
                             SONG NAME - Band Name
-------------------------------------------------------------------------------
Tabbed by: Andrew
E-mail: cameraman7@ameritech.net

Tuning: Standard

e|---0----0-----0----0-------------------------------------------------------|
B|---2----3-----2----3-------------------------------------------------------|
G|---2----0-----2----0-------------------------------------------------------|
D|---0----2-----0----2-------------------------------------------------------|
A|---------------------------------------------------------------------------|
E|---------------------------------------------------------------------------|

^Just play those back and forth until the lyrics

e|---0----0----0----0-----0-----0-----0------0-------------------------------|
B|---2----3----2----3-----0-----2-----0------2-------------------------------|
G|---2----0----2----0-----0-----0-----0------0-------------------------------| x2
D|---0----2----0----2-----2-----2-----2------2-------------------------------|
A|------------------------2-----0-----2------0-------------------------------|
E|------------------------0-----------0--------------------------------------|

^This part when the lyrics come in

e|----1-----0----------------------------------------------------------------|
B|----3-----1----------------------------------------------------------------|
G|----3-----0----------------------------------------------------------------|
D|----3-----2----------------------------------------------------------------|
A|----1-----3----------------------------------------------------------------|
E|----1----------------------------------------------------------------------|

Then those are the last 2 chords^, back to the beginning after that and repeat.

There are obviously multiple guitar parts that I'm too lazy to tab but I at least wanted 
to get the chords out there for reference.

************************************

| /   slide up
| \   slide down
| h   hammer-on
| p   pull-off
| ~   vibrato
| +   harmonic
| x   Mute note
| b   Bend
| pb  Pre-bend
| br  Bend release
| pbr Pre-bend release
| brb Bend release bend

************************************
Добавлено: 24.12.2015
Другие материалы по этой песне:
  • Аккорды и текст

Страница создана 24.12.2015
http://primanota.ru/yuck/rebirth-chords.htm
Привет, Гость.
Предлагаем пройти революционный курс по гитаре.
Подарок от PrimaNota.Ru, забирай!