PrimaNota.ru - самый крупный в мире бесплатный архив песенных текстов, аккордов, табулатур и нот


Yu Grupa - Sama - таба, видео

Регистрация Запомнить меня
Войти через:  Facebook Google Twitter Vk Yandex Mail.ru

Yu Grupa - Sama - таба, видео

Печатать
Просмотров: 129
e|------------------------------------------------------------------|
B|------------------------------------------------------------------|
G|-7h9-9-9-9-----7-----------5-------------------------7p5----------|
D|-----------7h9---7-5—--5h7---5-5-7---------5h7-7-7-5-----7-5-5----|
A|-----------------------------------5-7-7--------------------------|
E|------------------------------------------------------------------|

e|------------------------------------------------------------------|
B|------------------------------------------------------------------|
G|--7p5----------------------------7p5-----------7p5----------------|
D|-----7-5-7-4-----------5h7-7-7-5-----7-5-5---------7-5-7-4--------|
A|-------------5-7-7-----------------------------------------5-7-7--|
E|------------------------------------------------------------------|

e|------------------------------------------------------------------|
B|------------------------------------------------------------------|
G|-7h9-9-9-9-----7-----------5-------------------------7p5----------|
D|-----------7h9---7-5—--5h7---5-5-7---------5h7-7-7-5-----7-5-5----|
A|-----------------------------------5-7-7--------------------------|
E|------------------------------------------------------------------|

e|------------------------------------------------------------------|
B|------------------------------------------------------------------|
G|--7p5----------------------------7p5-----------7p5----------------|
D|-----7-5-7-4-----------5h7-7-7-5-----7-5-5---------7-5-7-4--------|
A|-------------5-7-7-----------------------------------------5-7-7--|
E|------------------------------------------------------------------|

e|------------------------------------------------------------------|
B|---------------11/8-8----------------------------------5b---------|
G|---7h9-9-9-9-7--------9--------5--------------5-7--5-7---5--2-4-5-|
D|---------------------------5h7---5-5-7----------------------------|
A|---------------------------------------5-7-7----------------------|
E|------------------------------------------------------------------|

e|------------------------------------------------------------------|
B|-------------------------------5b---------------------------------|
G|----------------------5-7--5-7---5--2-4-5-------------------------|
D|------------------------------------------------------------------|
A|--7-6-5-----------------------------------7-6-5-------------------|
E|-------7-6-5-1-3-3------------------------------7-6-5-1-3-3-------|


h-hamer on
p-pull of
b-bend
/-slide

Добавлено: 27.05.2012
Вам также может быть интересно:
Другие материалы по этой песне:
  • Аккорды и текст

Страница создана 27.05.2012
http://primanota.ru/yu-grupa/sama-chords.htm
Привет, Гость.
Предлагаем пройти революционный курс по гитаре.
Подарок от PrimaNota.Ru, забирай!