PrimaNota.ru - самый крупный в мире бесплатный архив песенных текстов, аккордов, табулатур и нот


Yt - Dont Stop Runnin - таба, видео

Регистрация Запомнить меня
Войти через:  Facebook Google Twitter Vk Yandex Mail.ru

Yt - Dont Stop Runnin - таба, видео

Печатать
Просмотров: 81
Уроки эстрадного вокала в Санкт-Петербурге
-------------------------------------------------------------------------------
                             DON'T STOP RUNNIN' -  Y&T
-------------------------------------------------------------------------------
Tabbed by: cjog210
E-mail: cjog210@gmail.com

Tuning: Standard

                                 Intro
e|---------------------------------------------------------------------------------------|
B|--------------------------------------------------------------------------------3------|
G|--2---4--2--4--2---2-2h4p2--------4--2--4--2---2-2h4p2-----4--2--4--2---2-2h4p2-2------|
D|--2-------------------------4--------------------------2------------------------0------|
A|--0-------------------------4--------------------------2-------------------------------|
E|----------------------------2--------------------------0-------------------------------|


************************************

| /   slide up
| \   slide down
| h   hammer-on
| p   pull-off
| ~   vibrato
| +   harmonic
| x   Mute note
| b   Bend
| pb  Pre-bend
| br  Bend release
| pbr Pre-bend release
| brb Bend release bend

************************************
Добавлено: 11.04.2016
Другие материалы по этой песне:
  • Аккорды и текст

Страница создана 11.04.2016
http://primanota.ru/yt-2/dont-stop-runnin-chords.htm
Привет, Гость.
Предлагаем пройти революционный курс по гитаре.
Подарок от PrimaNota.Ru, забирай!