PrimaNota.ru - самый крупный в мире бесплатный архив песенных текстов, аккордов, табулатур и нот


Yt - Barroom Boogie - бас-таба, видео

Регистрация Запомнить меня
Войти через:  Facebook Google Twitter Vk Yandex Mail.ru

Yt - Barroom Boogie - бас-таба, видео

Печатать
Просмотров: 64
Y&T - Barroom Boogie
Black Tiger Album

Please rate and comment.

G|-------------|     |----|
D|-7-----7-----|x16  |----|
A|-------------|     |----|
E|---555---555-|     |-55-|

G|----------------|    |-----------|
D|-5---5-55-------|x3  |-----------|
A|----------------|    |-----------|
E|---------5-55-3-|    |-5-5-5-5-5-|

G|-------------|     |----|
D|-7-----7-----|x16  |----|
A|-------------|     |----|
E|---555---555-|     |-55-|

G|----------------|    |----|
D|-5---5-55-------|x3  |----|
A|----------------|    |----|
E|---------5-55-3-|    |-55-|

G|----------------|    |-----------|
D|-5---5-55-------|x3  |-----------|
A|----------------|    |-----------|
E|---------5-55-3-|    |-5-5-5-5-5-|

G|-------------|     |----|
D|-7-----7-----|x16  |----|
A|-------------|     |----|
E|---555---555-|     |-55-|

G|----------------|    |----|
D|-5---5-55-------|x3  |----|
A|----------------|    |----|
E|---------5-55-3-|    |-55-|

G|----------------|    |----|
D|-5---5-55-------|x3  |----|
A|----------------|    |----|
E|---------5-55-3-|    |-55-|

G|-------------|
D|-7-----7-----|Keep on playing throughout the rest of the guitar solo.
A|-------------|
E|---555---555-|

G|-------------|     |----|
D|-7-----7-----|x16  |----|
A|-------------|     |----|
E|---555---555-|     |-55-|

G|----------------|    |----|
D|-5---5-55-------|x3  |----|
A|----------------|    |----|
E|---------5-55-3-|    |-55-|

G|----------------|    |----|
D|-5---5-55-------|x3  |----|
A|----------------|    |----|
E|---------5-55-3-|    |-55-|

G|-----------|    |------|
D|-----------|x4  |------|
A|-----------|    |------|
E|-5-5-5-5-5-|    |-55-3-|
Добавлено: 11.04.2016
Другие материалы по этой песне:
  • Аккорды и текст

Страница создана 11.04.2016
http://primanota.ru/yt-2/barroom-boogie-chords.htm
Привет, Гость.
Предлагаем пройти революционный курс по гитаре.
Подарок от PrimaNota.Ru, забирай!