PrimaNota.ru - самый крупный в мире бесплатный архив песенных текстов, аккордов, табулатур и нот


øystein Sunde - Black Mountain Rag - таба, видео

Регистрация Запомнить меня
Войти через:  Facebook Google Twitter Vk Yandex Mail.ru

øystein Sunde - Black Mountain Rag - таба, видео

Печатать
Просмотров: 82
-------------------------------------------------------------------------------
                             SONG NAME - Band Name
-------------------------------------------------------------------------------
Tabbed by:
E-mail:

Tuning:

e|--------------------------------------------------------------------------------------|
B|--------5--3--5--3-------5--3-----5--3--5--3------------------------------------------|
G|---3-4--------------3-4-------3-4-------------3-4--0----------------------------------|
D|--------0--------0-------0----0------0-------------------2--0-------------------------|
A|---0----------------0-------------0---------------------------------------------------|
E|-----------0----------------0--------------0------------------------------------------|


************************************

| /   slide up
| \   slide down
| h   hammer-on
| p   pull-off
| ~   vibrato
| +   harmonic
| x   Mute note
| b   Bend
| pb  Pre-bend
| br  Bend release
| pbr Pre-bend release
| brb Bend release bend

************************************
Добавлено: 24.08.2015
Другие материалы по этой песне:
  • Аккорды и текст

Страница создана 24.08.2015
http://primanota.ru/ystein-sunde/black-mountain-rag-chords.htm
Привет, Гость.
Предлагаем пройти революционный курс по гитаре.
Подарок от PrimaNota.Ru, забирай!