PrimaNota.ru - самый крупный в мире бесплатный архив песенных текстов, аккордов, табулатур и нот


Yppah - Never Mess With Sunday Fixed - таба, видео

Регистрация Запомнить меня
Войти через:  Facebook Google Twitter Vk Yandex Mail.ru

Yppah - Never Mess With Sunday Fixed - таба, видео

Печатать
Просмотров: 86
e|--------------------------------------------------------------------|
B|--------------------------------------------------------------------|
G|---------2---2---2---2---2---2---2---2---2---2---2---2---2---2---2--|
D|----------------------------0---0---0---0---0-----------------------|
A|-------1---1---1---1---1------------------------3---3---3---3---3---|
E|--------------------------------------------------------------------|

e|-----------------------|
B|-----------------------|
G|--2---2------2---2-----|
D|-----------3---3---3---|
A|-3---3---3-------------|
E|-----------------------|
Добавлено: 14.08.2015
Вам также может быть интересно:
Другие материалы по этой песне:
  • Аккорды и текст

Страница создана 14.08.2015
http://primanota.ru/yppah/never-mess-with-sunday-fixed-chords.htm
Привет, Гость.
Предлагаем пройти революционный курс по гитаре.
Подарок от PrimaNota.Ru, забирай!