PrimaNota.ru - самый крупный в мире бесплатный архив песенных текстов, аккордов, табулатур и нот


Yovee - Grace - таба, видео

Регистрация Запомнить меня
Войти через:  Facebook Google Twitter Vk Yandex Mail.ru

Yovee - Grace - таба, видео

Печатать
Просмотров: 85
-------------------------------------------------------------------------------
                             Grace - Yovee
-------------------------------------------------------------------------------
Tabbed by:kats
E-mail:

Tuning:

e|---------------------------------------------------------------------------|
B|5-5--7--5-7-5-10-7---7---7-----10-7-5-7--5-7-10--7-5-7-5-7-----------------|
G|------------------9---9---2~------------------------------2~---------------|
D|---------------------------------------------------------------------------|
A|---------------------------------------------------------------------------|(2x)
E|---------------------------------------------------------------------------|

e|-3---2---2-2-2-2--3-5-3----------------------------------------------------|
B|0---0----------------------------------------------------------------------|
G|---------------------------------------------------------------------------|
D|---------------------------------------------------------------------------|
A|---------------------------------------------------------------------------|
E|---------------------------------------------------------------------------|




************************************

| /   slide up
| \   slide down
| h   hammer-on
| p   pull-off
| ~   vibrato
| +   harmonic
| x   Mute note
| b   Bend
| pb  Pre-bend
| br  Bend release
| pbr Pre-bend release
| brb Bend release bend

************************************
Добавлено: 03.01.2016
Другие материалы по этой песне:
  • Аккорды и текст

Страница создана 03.01.2016
http://primanota.ru/yovee/grace-chords.htm
Привет, Гость.
Предлагаем пройти революционный курс по гитаре.
Подарок от PrimaNota.Ru, забирай!