PrimaNota.ru - самый крупный в мире бесплатный архив песенных текстов, аккордов, табулатур и нот


Youth Of Today - Together - бас-таба, видео

Регистрация Запомнить меня
Войти через:  Facebook Google Twitter Vk Yandex Mail.ru

Youth Of Today - Together - бас-таба, видео

Печатать
Просмотров: 51
Song: Together
Artist: Youth Of Today
Album: New York City Hardcore - The Way It Is
Genre: Hardcore
Year: 1988

Hey guys! This is the bass tab of the song. I took the notes from a YouTube bass cover-video...
but it is a fucking 100% correct tab.
Anyway, enjoy the Youth Of Today!

Intro:

G:-------------------------
D:--------7-7--------------
A:-------------------------
E:---5-5-------5-5--1--3---x1

G:----------------------------------------------------------------------9-7--5555-------
D:-----------------5--3-------------------------------------5--3--77777-----------5-3---
A:------------33-3----------------33-3----------------33-3------------------------------
E:---55-555-5------------55-555-5------3--1--55-555-5-----------------------------------x1

Verse 1:

G:--------------------------------------------
D:-------------------------------------5--3---
A:------------33-3----------------33-3--------
E:---55-555-5------3--1--55-555-5-------------

Chorus/End:

G:------------------------------------------
D:--------22-2----------------22-2-3333-5---
A:------------------------------------------
E:---00-0------11-1-33-3-00-0---------------

Bridge:

G:--------------------------------------
D:-------------7-7-------7-777-7-5-------
A:--------------------------------7-5---
E:---5-5--5-5-------5-5-----------------x1

G:----------------------------------------------
D:----------------------------------------------
A:--------------------5-5--0-000000-------------
E:---0000-1-1111-0000---------------5---3---1---x1

G:----------------------------------------------
D:----------------------------------------------
A:--------------------5-5--0-0-0-0-00000000-5---
E:---0000-1-1111-0000---------------------------x1

G:--------------------------------------------------
D:---2222-3-3333-2222-0-0-----------7-777-7-5-------
A:-------------------------0-0-0-0------------7-5---
E:--------------------------------------------------x1

G:--------------------------------------------
D:---2222-3-3333-2222-0-0---------------------
A:-------------------------0-0-0-0------------
E:----------------------------------1--3--5---x1

Verse 2:

G:-----------------------------------------------------------------------7--5555--------
D:-----------------5--3------------------------------------5--3--77777-9---------5--3---
A:------------33-3----------------33-3----------------33-3------------------------------
E:---55-555-5------------55-555-5------3--1--55-555-5-----------------------------------

The order is:
.Intro x1
.Verse 1 x2
.Chorus x1
.Verse 1 x2
.Chorus x1
.Bridge x1
.Verse 2 x1
.End x1





Tab by: mdc_ivan








Добавлено: 06.06.2016
Другие материалы по этой песне:
  • Аккорды и текст

Страница создана 06.06.2016
http://primanota.ru/youth-of-today/together-chords.htm
Привет, Гость.
Предлагаем пройти революционный курс по гитаре.
Подарок от PrimaNota.Ru, забирай!