PrimaNota.ru - самый крупный в мире бесплатный архив песенных текстов, аккордов, табулатур и нот


Youth Brigade - How Can We Live Like This - текст песни, бас-таба, видео

Регистрация Запомнить меня
Войти через:  Facebook Google Twitter Vk Yandex Mail.ru

Youth Brigade - How Can We Live Like This - текст песни, бас-таба, видео

Печатать
Просмотров: 158
Band: Youth Brigade
Song: How Can We Live Like This?
Album: Out of Print

G|---------------------------------------------------|
D|---------------------------------------------------|
A|---9---7---9---10-10101010-10-1010101010-----------|
E|-7---7---7---7---------------------------5555-6666-|

G|--------------------------------------------------|      
D|-----------------------------------------6-7-7788-|
A|---9---7---9---10-10101010-10-1010101010----------| 
E|-7---7---7---7------------------------------------|

G|---------------------------------------------------|
D|---------------------------------------------------|
A|---9---7---9---10-10101010-10-1010101010-----------|
E|-7---7---7---7---------------------------5555-6666-|

G|-----------------------------------------|      
D|-----------------------------------------|
A|---9---7---9---10-10101010-10-1010101010-| 
E|-7---7---7---7---------------------------|


Добавлено: 29.07.2015
Вам также может быть интересно:
Другие материалы по этой песне:
  • Аккорды и текст

Страница создана 17.05.2012
http://primanota.ru/youth-brigade/how-can-we-live-like-this-chords.htm
Привет, Гость.
Предлагаем пройти революционный курс по гитаре.
Подарок от PrimaNota.Ru, забирай!