PrimaNota.ru - самый крупный в мире бесплатный архив песенных текстов, аккордов, табулатур и нот


Yourcodenameis:Milo - 17 - текст песни, бас-таба, видео

Регистрация Запомнить меня
Войти через:  Facebook Google Twitter Vk Yandex Mail.ru

Yourcodenameis:Milo - 17 - текст песни, бас-таба, видео

Печатать
Просмотров: 48
----------------------------------------------------------------------------
              Yourcodenameis:Milo - 17
----------------------------------------------------------------------------
From the album Ignoto
Track number 2
Bass tab - tuning DADG


Verse
G|---------------------------------------------------------|
D|--3-3-3-3-3-3-3-3-2-2-2-2--------------------------------|
A|--------------------------0-0-0-0-0-0-0-0----------------|
D|---------------------------------------------------------|

Pre-Chorus ("please get away...")
G|-----------------------------------------------------------------|
D|-----------------------------------------------------------------|
A|-5-5-5-5-5-5-5-5-3-3-3-3-3-3-3-3-1-1-1-1-1-1-1-1-----------------|
D|-------------------------------------------------5-5-5-5-5-5-5-5-|

Chorus ("day's we've taken all for granted")
G|---------------------------------------------------------------------|
D|---------------------------------------------------------------------|
A|-3-3-3-3-3-3-3-3-7-7-7-7-7-7-7-7-------------------------------------|
D|--------------------------------5-5-5-5-5-5-5-5-2-2-2-2-2-2-0-0------|

Breakdown
G|------------------------------------------------------------------|
D|------------------------------------------------------------------|
A|-7----7----7----7h9--7--7----7h9--7-------------------------------|
D|--0-0--0-0--0-0----0-----0-0----0---------------------------------|

And thats it (I think) 


Добавлено: 19.05.2016
Другие материалы по этой песне:
  • Аккорды и текст

Страница создана 19.11.2013
http://primanota.ru/yourcodenameismilo/17-chords.htm
Привет, Гость.
Предлагаем пройти революционный курс по гитаре.
Подарок от PrimaNota.Ru, забирай!