PrimaNota.ru - самый крупный в мире бесплатный архив песенных текстов, аккордов, табулатур и нот


Your Hero - A Kingdoms Tale - аккорды и текст, таба, видео

Регистрация Запомнить меня
Войти через:  Facebook Google Twitter Vk Yandex Mail.ru

Your Hero - A Kingdoms Tale - аккорды и текст, таба, видео

Печатать
Просмотров: 110
A Kingdoms Tale
Your Hero
I know this is not really how they play it but it sounds good to me :D

Intro :

1rst Guitar

E -3--------------3----------------------------------|
E --2-3-0-3--0-----2-3-0-3--0---0--------------------|
G ----------2--------------2--0--2-0-----------------|
D -----------------------------------2---------------| X2
A ---------------------------------------------------|
E ---------------------------------------------------|


2nd Guitar (second time)

E -7----3----0---------------------------------------|
B ---------------------------------------------------|
G ---------------------------------------------------|
D ---------------------------------------------------|
A ---------------------------------------------------|
E ---------------------------------------------------|

If you want you can play the piano part during the chorus:

E --------------------------------------------2------|
B -----3-0--------3-0------------1-0------------3----|
G ---0-------------------------0---------------------|
D -2-----------2------------0--------------4---------|
A -----------3---------------------------5-----------|
E ---------------------------------------------------|

Cadd3              Em7
I ruled the world From my dark hill
                            Cadd9
Where everybody loved their king
              Em
There wasn't pain
                                D
The blood never touched the ground
                     Cadd9
From that day... But I was sure
          Em7
That one day
                        Cadd3
Something would have changed
           Em7
The human kind
                  D
Has never been strong enough


Chorus :

         Cadd9                        Em
And it seems like The sky has fallen
            G               D
Every certainty is lost...

Now I'm watching my kingdom
Cadd9
Burning in the fire of love
Em7                        G
I can't Control it anymore
            D
I'm too scared to face that truth

   Cadd9
now I know
     Em7                   Cadd9
The real king's inside my chest
      Em7                 Cadd9
And I'm gonna quit this war...
     Em7                     D
not hiding Or pretending anymore


Chorus:

         Cadd9                        Em
And it seems like The sky has fallen
            G               D
Every certainty is lost...

Now I'm watching my kingdom
Cadd9
Burning in the fire of love
Em7                        G
I can't Control it anymore
            D
I'm too scared to face that truth


Cadd9                                     Em7
Why should I close the gates of my heart...?
G                     D
Letting it become a stone...
Cadd9                              Em7
How could I see through my thick window?
G                              D
All the good things of this world…

Chorus:

         Cadd9                        Em
And it seems like The sky has fallen
            G               D
Every certainty is lost...

Now I'm watching my kingdom
Cadd9
Burning in the fire of love
Em7                        G
I can't Control it anymore
            D
I'm too scared to face that truth


www.myspace.com/yourheroband
Добавлено: 22.02.2012
Другие материалы по этой песне:
  • Аккорды и текст

Страница создана 22.02.2012
http://primanota.ru/your-hero/a-kingdoms-tale-chords.htm
Привет, Гость.
Предлагаем пройти революционный курс по гитаре.
Подарок от PrimaNota.Ru, забирай!