PrimaNota.ru - самый крупный в мире бесплатный архив песенных текстов, аккордов, табулатур и нот


Your Demise - Push Me Under - таба, бас-таба, видео

Регистрация Запомнить меня
Войти через:  Facebook Google Twitter Vk Yandex Mail.ru

Your Demise - Push Me Under - таба, бас-таба, видео

Печатать
Просмотров: 64
Уроки эстрадного вокала в Санкт-Петербурге
Tuning: drop C# (d# A# F# C# G# C#)

/ - slide
~ - let ring
. - palm mute

// text - comment
text - lyrics


***********************************************************************************************


// 00:00 //


// BOTH GUITARS

-----------------------------------------------------------------------------------------------|
-----------------------------------------------------------------------------------------------|
-----------------------------------------------------------------------------------------------|
-2~--2~--2~-2~-2~-2----------------------------------------------------------------------------|
-2~--2~--2~-2~-2~-2----------------------------------------------------------------------------|
-2~--2~--2~-2~-2~-2----------------------------------------------------------------------------|


// 00:04 //


// BOTH GUITARS

I've seen the fucking devil, but he was staring right back at me.
Perfect bodies and perfect people, God, I wish I was equal.
Just a porcelain dream, washing away my regrets day after day,
if only you knew...
-----------------------------------------------------------------------------------------------|
-----------------------------------------------------------------------------------------------|
-----------------------------------------------------------------------------------------------|
-7/9-9-9-9--10-9-9-9-9--12-12-12-12--5-5-5-5--7/9-9-9-9--10--9-9-9-9--12-12-12-12--10-10-10-10-| x2
-5/7-7-7-7---8-7-7-7-7--10-10-10-10--3-3-3-3--5/7-7-7-7---8--7-7-7-7--10-10-10-10---8--8--8--8-|
-----------------------------------------------------------------------------------------------|


// 00:18 //


// BOTH GUITARS

-----------------------------------------------------------------------------------------------|
-----------------------------------------------------------------------------------------------|
-----------------------------------------------------------------------------------------------|
-7/9-9-9-9--10-9-9-9-9--12--10-10-10-10--14--10-10-10-10---------------------------------------| x2
-5/7-7-7-7---8-7-7-7-7--10---8--8--8--8--12---8--8--8--8---------------------------------------|
-----------------------------------------------------------------------------------------------|


// 00:26 //


// 1ST GUITAR

-----------------------------------------------------------------------------------------------|
-----------------------------------------------------------------------------------------------|
-----------------------------------------------------------------------------------------------|
-7/9-9-9-9--10--9-9-9-9--12--10-10-10-10--14--10-10-10-10--------------------------------------| x2
-5/7-7-7-7---8--7-7-7-7--10---8--8--8--8--12---8--8--8--8--------------------------------------|
-----------------------------------------------------------------------------------------------|

// 2ND GUITAR

// Start with slowly sliding your finger on 4, 5, 6 strings
// from any fret to 2nd. Try to figure it out listening song.

-----------------------------------------------------------------------------------------------|
-----------------------------------------------------------------------------------------------|
-----------------------------------------------------------------------------------------------|
-2-2--2-2--2-2--2-2--2--2--2--2~---2-2--2-2--2-2--2-2--2--2--2--2~-----------------------------|
-2-2--2-2--2-2--2-2--2--2--2--2~---2-2--2-2--2-2--2-2--2--2--2--2~-----------------------------|
-2-2--2-2--2-2--2-2--2--2--2--2~---2-2--2-2--2-2--2-2--2--2--2--2~-----------------------------|
                     .  .  .                           .  .  .

// 00:34 //


// BOTH GUITARS

You see a happy boy care free with no troubles,
but really just hollow and washed out.
-----------------------------------------------------------------------------------------------|
-----------------------------------------------------------------------------------------------|
-----------------------------------------------------------------------------------------------|
-2-2--2-2--2-2--2-2--2--2--2--2~---2-2--2-2--2-2--2-2--2--2--2--2~-----------------------------|
-2-2--2-2--2-2--2-2--2--2--2--2~---2-2--2-2--2-2--2-2--2--2--2--2~-----------------------------|
-2-2--2-2--2-2--2-2--2--2--2--2~---2-2--2-2--2-2--2-2--2--2--2--2~-----------------------------|
                     .  .  .                           .  .  .


// 00:40 //

// 1ST GUITAR

I don't crave attention or perfection,
just a personal mention and some happiness inside.
-----------------------------------------------------------------------------------------------|
-----------------------------------------------------------------------------------------------|
-9-9--9-9--9-9--9-9--10-10-10-10~---9-9--9-9--9-9--9-9--10-10-10-10~---------------------------|
-----------------------------------------------------------------------------------------------|
-7-7--7-7--7-7--7-7---8--8--8--8~---7-7--7-7--7-7--7-7---8--8--8--8~---------------------------|
-----------------------------------------------------------------------------------------------|

// 2ND GUITAR

-----------------------------------------------------------------------------------------------|
-----------------------------------------------------------------------------------------------|
-----------------------------------------------------------------------------------------------|
-2-2--2-2--2-2--2-2--2--2--2--2~---2-2--2-2--2-2--2-2--2--2--2--2~-----------------------------|
-2-2--2-2--2-2--2-2--2--2--2--2~---2-2--2-2--2-2--2-2--2--2--2--2~-----------------------------|
-2-2--2-2--2-2--2-2--2--2--2--2~---2-2--2-2--2-2--2-2--2--2--2--2~-----------------------------|
                     .  .  .                           .  .  .


// 00:48 //


// 1ST GUITAR

-----------------------------------------------------------------------------------------------|
-----------------------------------------------------------------------------------------------|
-9~--9~--9~-9~-9~-9----------------------------------------------------------------------------|
-----------------------------------------------------------------------------------------------|
-7~--7~--7~-7~-7~-7----------------------------------------------------------------------------|
-----------------------------------------------------------------------------------------------|

// 2ND GUITAR

-----------------------------------------------------------------------------------------------|
-----------------------------------------------------------------------------------------------|
-----------------------------------------------------------------------------------------------|
-2~--2~--2~-2~-2~-2----------------------------------------------------------------------------|
-2~--2~--2~-2~-2~-2----------------------------------------------------------------------------|
-2~--2~--2~-2~-2~-2----------------------------------------------------------------------------|


// 00:52 //


// BOTH GUITARS

I've seen the fucking devil, but he was staring right back at me.
Perfect bodies and perfect people, God, I wish I was equal.
Just a porcelain dream, washing away my regrets day after day,
if only you knew...

Day after day, day after day.
Blah!
-----------------------------------------------------------------------------------------------|
-----------------------------------------------------------------------------------------------|
-----------------------------------------------------------------------------------------------|
-7/9-9-9-9--10-9-9-9-9--12-12-12-12--5-5-5-5--7/9-9-9-9--10--9-9-9-9--12-12-12-12--10-10-10-10-| x4
-5/7-7-7-7---8-7-7-7-7--10-10-10-10--3-3-3-3--5/7-7-7-7---8--7-7-7-7--10-10-10-10---8--8--8--8-|
-----------------------------------------------------------------------------------------------|


// 01:21 //

// 1ST GUITAR

But I still wear this brave face with a smile -
-----------------------------------------------------------------------------------------------|
-----------------------------------------------------------------------------------------------|
-----------------------------------------------------------------------------------------------|
-3--2--0---5--2--0---3--2--2--2--2--2--2--2--2--2----------------------------------------------|
-3--2--0---5--2--0---3--2--2--2--2--2--2--2--2--2----------------------------------------------|
-3--2--0---5--2--0---3--2--2--2--2--2--2--2--2--2----------------------------------------------|
       .         .         .  .  .  .  .  .  .  .

// 2ND GUITAR

-----------------------------------------------------------------------------------------------|
-----------------------------------------------------------------------------------------------|
-----------------------------------------------------------------------------------------------|
-3--2------------------------------------------------------------------------------------------|
-3--2------------------------------------------------------------------------------------------|
-3--2------------------------------------------------------------------------------------------|

// 1ST GUITAR

fuck it I'm 23 with key to the fucking world,
-----------------------------------------------------------------------------------------------|
-----------------------------------------------------------------------------------------------|
-----------------------------------------------------------------------------------------------|
-3--2--0---5--2--0---3--2--2--2--2--2--2--2--2--2----------------------------------------------|
-3--2--0---5--2--0---3--2--2--2--2--2--2--2--2--2----------------------------------------------|
-3--2--0---5--2--0---3--2--2--2--2--2--2--2--2--2----------------------------------------------|
       .         .         .  .  .  .  .  .  .  .

// 2ND GUITAR

-----------------------------------------------------------------------------------------------|
-----------------------------------------------------------------------------------------------|
-3--2-------------------2-2--2-2--2~--2-2--2-2--2~---------------------------------------------|
-3--2-------------------2-2--2-2--2~--2-2--2-2--2~---------------------------------------------|
-3--2-------------------2-2--2-2--2~--2-2--2-2--2~---------------------------------------------|
                        . .  . .      . .  . .
So why am I still going back to that mirror


// 01:33 //


// 1ST GUITAR

with the devil staring back at me?
-----------------------------------------------------------------------------------------------|
-----------------------------------------------------------------------------------------------|
-----------------------------------------------------------------------------------------------|
-3--2--0--5--2--0--3--2--2--2--2--2--2/5/3-----------------------------------------------------|
-3--2--0--5--2--0--3--2--2--2--2--2--2/5/3-----------------------------------------------------|
-3--2--0--5--2--0--3--2--2--2--2--2--2/5/3-----------------------------------------------------|
       .        .        .  .  .  .

// 2ND GUITAR
// yes, it starts with 2-2

-----------------------------------------------------------------------------------------------|
-----------------------------------------------------------------------------------------------|
-----------------------------------------------------------------------------------------------|
-2--2----------------2-2--2-2--2~--------------------------------------------------------------|
-2--2----------------2-2--2-2--2~--------------------------------------------------------------|
-2--2----------------2-2--2-2--2~--------------------------------------------------------------|
                     . .  . .


// 01:37 //


// BOTH GUITARS

Drag me down, push me under,
drag me down
-----------------------------------------------------------------------------------------------|
-----------------------------------------------------------------------------------------------|
-----------------------------------------------------------------------------------------------| x3
-3--2--0---5--2--0---3--2--2--2--2--2--2--2--2--2----------------------------------------------|
-3--2--0---5--2--0---3--2--2--2--2--2--2--2--2--2----------------------------------------------|
-3--2--0---5--2--0---3--2--2--2--2--2--2--2--2--2----------------------------------------------|
       .         .         .  .  .  .  .  .  .  .


// then

// 1ST GUITAR
// use gate filter here or just play 12th note lot of times

Push me fucking under
--------------------------------------------12~------------------------------------------------|
-----------------------------------------------------------------------------------------------|
-----------------------------------------------------------------------------------------------|
-3--2--0--5--2--0--3--2--2--2--2--2--2/5/3-----------------------------------------------------|
-3--2--0--5--2--0--3--2--2--2--2--2--2/5/3-----------------------------------------------------|
-3--2--0--5--2--0--3--2--2--2--2--2--2/5/3-----------------------------------------------------|
       .        .        .  .  .  .


// 2ND GUITAR

-----------------------------------------------------------------------------------------------|
-----------------------------------------------------------------------------------------------|
-----------------------------------------------------------------------------------------------|
---------------------------------------------2~~-----------------------------------------------|
---------------------------------------------2~~-----------------------------------------------|
---------------------------------------------2~~-----------------------------------------------|

// 02:07 //


// BOTH GUITARS

But I'm...
-----------------------------------------------------------------------------------------------|
-----------------------------------------------------------------------------------------------|
-----------------------------------------------------------------------------------------------|
-2--2--2--2--2--2--2--2------------------------------------------------------------------------|
-2--2--2--2--2--2--2--2------------------------------------------------------------------------|
-2--2--2--2--2--2--2--2------------------------------------------------------------------------|
 .  .  .  .  .  .  .  .


// then BOTH GUITARS

still wear this brave face with a smile -
I've found the key to the fucking world,
Drag me down...
-----------------------------------------------------------------------------------------------|
-----------------------------------------------------------------------------------------------|
-----------------------------------------------------------------------------------------------| x2
-3--2--0---5--2--0---3--2--2--2--2--2--2--2--2--2----------------------------------------------|
-3--2--0---5--2--0---3--2--2--2--2--2--2--2--2--2----------------------------------------------|
-3--2--0---5--2--0---3--2--2--2--2--2--2--2--2--2----------------------------------------------|
       .         .         .  .  .  .  .  .  .  .


// and then

// 1ST GUITAR

And push me under.
-----------------------------------------------------------------------------------------------|
-----------------------------------------------------------------------------------------------|
-----------------------------------------------------------------------------------------------|
-3--2--0--5--2--0--3--2--2--2--2--2--2/5/3--2~-------------------------------------------------|
-3--2--0--5--2--0--3--2--2--2--2--2--2/5/3--2~-------------------------------------------------|
-3--2--0--5--2--0--3--2--2--2--2--2--2/5/3--2~-------------------------------------------------|
       .        .        .  .  .  .

// 2ND GUITAR

-----------------------------------------------------------------------------------------------|
-----------------------------------------------------------------------------------------------|
-----------------------------------------------------------------------------------------------|
-3--2--0---5--2--0---3--2--2--2--2----------2~-------------------------------------------------|
-3--2--0---5--2--0---3--2--2--2--2----------2~-------------------------------------------------|
-3--2--0---5--2--0---3--2--2--2--2----------2~-------------------------------------------------|
       .         .         .  .  .
Добавлено: 26.07.2014
Вам также может быть интересно:
Другие материалы по этой песне:
  • Аккорды и текст

Страница создана 26.07.2014
http://primanota.ru/your-demise/push-me-under-chords.htm
Привет, Гость.
Предлагаем пройти революционный курс по гитаре.
Подарок от PrimaNota.Ru, забирай!