PrimaNota.ru - самый крупный в мире бесплатный архив песенных текстов, аккордов, табулатур и нот


Your Demise - Feels Like Theres Something Dark Inside - таба, видео

Регистрация Запомнить меня
Войти через:  Facebook Google Twitter Vk Yandex Mail.ru

Your Demise - Feels Like Theres Something Dark Inside - таба, видео

Печатать
Просмотров: 159
Уроки эстрадного вокала в Санкт-Петербурге
Your demise - Feels like theres something dark inside
My 2nd tab not really good with writing it, but it sounds right.
Please comment.....I'd really appreciate it 
P: palm mute
~: let ring
S: Slide
listen to the song to get the right timings and palm muting patterns. 


|------------------------------------------------------------------|
|------------------------------------------------------------------|
|------------------------------------------------------------------|
|---5~---3-1~------------------------------------------------------|
|---5~---3-1~------------------------------------------------------|
|---5~---3-1~------------------------------------------------------| X4


|-------------------------------------------------------------------|
|-------------------------------------------------------------------|
|-------------------------------------------------------------------|
|---5-5--5--5-5--5--5-5--5--5-5--3--1-1--1--1-1--1--1-1--1--1-1--3--|
|---5-5--5--5-5--5--5-5--5--5-5--3--1-1--1--1-1--1--1-1--1--1-1--3--|
|---5-5--5--5-5--5--5-5--5--5-5--3--1-1--1--1-1--1--1-1--1--1-1--3--|



|-----------------------------------------------------------------|
|-----------------------------------------------------------------|
|-----------------------------------------------------------------|
|---5-5--5--5-5--5--5-5--5--5-5--6--8-8--8--8-8--8--8-8--8--8-8---|
|---5-5--5--5-5--5--5-5--5--5-5--6--8-8--8--8-8--8--8-8--8--8-8---|
|---5-5--5--5-5--5--5-5--5--5-5--6--8-8--8--8-8--8--8-8--8--8-8---|



|-------------------------------------------------------------------|
|-------------------------------------------------------------------|
|-------------------------------------------------------------------|
|---5-5--5--5-5--5--5-5--5--5-5--3--1-1--1--1-1--1--1-1--1--1-1--3--|
|---5-5--5--5-5--5--5-5--5--5-5--3--1-1--1--1-1--1--1-1--1--1-1--3--|
|---5-5--5--5-5--5--5-5--5--5-5--3--1-1--1--1-1--1--1-1--1--1-1--3--|





|-----------------------------------------------------------------|
|-----------------------------------------------------------------|
|-----------------------------------------------------------------|
|---5-5--5--5-5--5--5-5--5--5-5--6--8-8--8--8-8--8--8-8--8--8-8---|
|---5-5--5--5-5--5--5-5--5--5-5--6--8-8--8--8-8--8--8-8--8--8-8---|
|---5-5--5--5-5--5--5-5--5--5-5--6--8-8--8--8-8--8--8-8--8--8-8---|


|--------------------------------------------|
|--------------------------------------------|
|--------------------------------------------|
|----5-5-5-5-5-5-3--1~-----------------------|
|----5-5-5-5-5-5-3--1~-----------------------|
|----5-5-5-5-5-5-3--1~-----------------------|X2


|---------------------------------------------------------|
|---------------------------------------------------------|
|---------------------------------------------------------|
|------------5---------5-----------5---------5~-----------|
|----5555555-5---55555-5---5555555-5---55555-5~-----------|
|----5555555-5---55555-5---5555555-5---55555-5~-----------|
     PPPPPPP     PPPPP     PPPPPPP     PPPPP


|--------------------------------------------------------------------|
|--------------------------------------------------------------------|
|--------------------------------------------------------------------|
|-------------1---------1------------1--------1--3-------------------|
|-----1111111-1---11111-1----1111111-1--11111-1--3-------------------|
|-----1111111-1---11111-1----1111111-1--11111-1--3-------------------|
      PPPPPPP     PPPPP      PPPPPPP    PPPPP


|--------------------------------------------------------------------|
|--------------------------------------------------------------------|
|--------------------------------------------------------------------|
|------------5---------5-----------5---------5~----------------------|
|----5555555-5---55555-5---5555555-5---55555-5~----------------------|
|----5555555-5---55555-5---5555555-5---55555-5~----------------------|
     PPPPPPP     PPPPP     PPPPPPP     PPPPP


|--------------------------------------------------------------------|
|--------------------------------------------------------------------|
|--------------------------------------------------------------------|
|-------------1---------1------------1--------1--3-------------------|
|-----1111111-1---11111-1----1111111-1--11111-1--3-------------------|
|-----1111111-1---11111-1----1111111-1--11111-1--3-------------------|
      PPPPPPP     PPPPP      PPPPPPP    PPPPP



|-------------------------------------------------------------------|
|-------------------------------------------------------------------|
|-------------------------------------------------------------------|
|---5-5--5--5-5--5--5-5--5--5-5--3--1-1--1--1-1--1--1-1--1--1-1--3--|
|---5-5--5--5-5--5--5-5--5--5-5--3--1-1--1--1-1--1--1-1--1--1-1--3--|
|---5-5--5--5-5--5--5-5--5--5-5--3--1-1--1--1-1--1--1-1--1--1-1--3--|



|-----------------------------------------------------------------|
|-----------------------------------------------------------------|
|-----------------------------------------------------------------|
|---5-5--5--5-5--5--5-5--5--5-5--6--8-8--8--8-8--8--8-8--8--8-8---|
|---5-5--5--5-5--5--5-5--5--5-5--6--8-8--8--8-8--8--8-8--8--8-8---|
|---5-5--5--5-5--5--5-5--5--5-5--6--8-8--8--8-8--8--8-8--8--8-8---|



|-------------------------------------------------------------------|
|-------------------------------------------------------------------|
|-------------------------------------------------------------------|
|---5-5--5--5-5--5--5-5--5--5-5--3--1-1--1--1-1--1--1-1--1--1-1--3--|
|---5-5--5--5-5--5--5-5--5--5-5--3--1-1--1--1-1--1--1-1--1--1-1--3--|
|---5-5--5--5-5--5--5-5--5--5-5--3--1-1--1--1-1--1--1-1--1--1-1--3--|



|-----------------------------------------------------------------|
|-----------------------------------------------------------------|
|-----------------------------------------------------------------|
|---5-5--5--5-5--5--5-5--5--5-5--6--8-8--8--8-8--8--8-8--8--8-8---|
|---5-5--5--5-5--5--5-5--5--5-5--6--8-8--8--8-8--8--8-8--8--8-8---|
|---5-5--5--5-5--5--5-5--5--5-5--6--8-8--8--8-8--8--8-8--8--8-8---|



|--------------------------------------------|
|--------------------------------------------|
|--------------------------------------------|
|----5-5-5-5-5-5-3--1~-----------------------|
|----5-5-5-5-5-5-3--1~-----------------------|
|----5-5-5-5-5-5-3--1~-----------------------|X4



|--------------------------------------------------------------------|
|--------------------------------------------------------------------|
|--------------------------------------------------------------------|
|------------5---------5-----------5---------5~----------------------|
|----5555555-5---55555-5---5555555-5---55555-5~----------------------|
|----5555555-5---55555-5---5555555-5---55555-5~----------------------|
     PPPPPPP     PPPPP     PPPPPPP     PPPPP


|--------------------------------------------------------------------|
|--------------------------------------------------------------------|
|--------------------------------------------------------------------|
|-------------1---------1------------1--------1--3-------------------|
|-----1111111-1---11111-1----1111111-1--11111-1--3-------------------|
|-----1111111-1---11111-1----1111111-1--11111-1--3-------------------|
      PPPPPPP     PPPPP      PPPPPPP    PPPPP

|--------------------------------------------------------------------|
|--------------------------------------------------------------------|
|--------------------------------------------------------------------|
|------------5---------5-----------5---------5~----------------------|
|----5555555-5---55555-5---5555555-5---55555-5~----------------------|
|----5555555-5---55555-5---5555555-5---55555-5~----------------------|
     PPPPPPP     PPPPP     PPPPPPP     PPPPP


|--------------------------------------------------------------------|
|--------------------------------------------------------------------|
|--------------------------------------------------------------------|
|-------------1---------1------------1--------1--3-------------------|
|-----1111111-1---11111-1----1111111-1--11111-1--3-------------------|
|-----1111111-1---11111-1----1111111-1--11111-1--3-------------------|
      PPPPPPP     PPPPP      PPPPPPP    PPPPP



|-------------------------------------------------------------------|
|-------------------------------------------------------------------|
|-------------------------------------------------------------------|
|---5-5--5--5-5--5--5-5--5--5-5--3--1-1--1--1-1--1--1-1--1--1-1--3--|
|---5-5--5--5-5--5--5-5--5--5-5--3--1-1--1--1-1--1--1-1--1--1-1--3--|
|---5-5--5--5-5--5--5-5--5--5-5--3--1-1--1--1-1--1--1-1--1--1-1--3--|



|-----------------------------------------------------------------|
|-----------------------------------------------------------------|
|-----------------------------------------------------------------|
|---5-5--5--5-5--5--5-5--5--5-5--6--8-8--8--8-8--8--8-8--8--8-8---|
|---5-5--5--5-5--5--5-5--5--5-5--6--8-8--8--8-8--8--8-8--8--8-8---|
|---5-5--5--5-5--5--5-5--5--5-5--6--8-8--8--8-8--8--8-8--8--8-8---|



|-------------------------------------------------------------------|
|-------------------------------------------------------------------|
|-------------------------------------------------------------------|
|---5-5--5--5-5--5--5-5--5--5-5--3--1-1--1--1-1--1--1-1--1--1-1--3--|
|---5-5--5--5-5--5--5-5--5--5-5--3--1-1--1--1-1--1--1-1--1--1-1--3--|
|---5-5--5--5-5--5--5-5--5--5-5--3--1-1--1--1-1--1--1-1--1--1-1--3--|



|-----------------------------------------------------------------|
|-----------------------------------------------------------------|
|-----------------------------------------------------------------|
|---5-5--5--5-5--5--5-5--5--5-5--6--8-8--8--8-8--8--8-8--8--8-8---|
|---5-5--5--5-5--5--5-5--5--5-5--6--8-8--8--8-8--8--8-8--8--8-8---|
|---5-5--5--5-5--5--5-5--5--5-5--6--8-8--8--8-8--8--8-8--8--8-8---|


|--------------------------------------------|
|--------------------------------------------|
|--------------------------------------------|
|----5-5-5-5-5-5-3--1~-----------------------|
|----5-5-5-5-5-5-3--1~-----------------------|
|----5-5-5-5-5-5-3--1~-----------------------|X4


|-------------------------------------------------------------|
|-------------------------------------------------------------|
|-------------------------------------------------------------|
|------------6s5--------------6s5-----------------------------|
|----55-5-5--6s5-555--55-5-5--6s5-555-------------------------|
|----55-5-5--6s5-555--55-5-5--6s5-555-------------------------| X2
     PP P P      PPP  PP P P      PPP   

|--------------------------------------------------------------------|
|--------------------------------------------------------------------|
|--------------------------------------------------------------------|
|-----------1---------------1----------------1------------------1--3-|
|-11-1-1-1--1-111--11-1-1-1-1--111--11-1-1-1-1---111--11-1-1-1--1--3-|
|-11-1-1-1--1-111--11-1-1-1-1--111--11-1-1-1-1---111--11-1-1-1--1--3-|
  PP P P P    PPP  PP P P P    PPP  pp p p P     ppp  pp p p p

|-------------------------------------------------------------|
|-------------------------------------------------------------|
|-------------------------------------------------------------|
|------------6s5--------------6s5-----------------------------|
|----55-5-5--6s5-555--55-5-5--6s5-555-------------------------|
|----55-5-5--6s5-555--55-5-5--6s5-555-------------------------| X2
     PP P P      PPP  PP P P      PPP   
|--------------------------------------------------------------------|
|--------------------------------------------------------------------|
|--------------------------------------------------------------------|
|-----------1---------------1----------------1------------------1--3-|
|-11-1-1-1--1-111--11-1-1-1-1--111--11-1-1-1-1---111--11-1-1-1--1--3-|
|-11-1-1-1--1-111--11-1-1-1-1--111--11-1-1-1-1---111--11-1-1-1--1--3-|
  PP P P P    PPP  PP P P P    PPP  pp p p P     ppp  pp p p p

|-------------------------------------------------------------|
|-------------------------------------------------------------|
|-------------------------------------------------------------|
|------------6s5--------------6s5-----------------------------|
|----55-5-5--6s5-555--55-5-5--6s5-555-------------------------|
|----55-5-5--6s5-555--55-5-5--6s5-555-------------------------| X2
     PP P P      PPP  PP P P      PPP   

|--------------------------------------------------------------------|
|--------------------------------------------------------------------|
|--------------------------------------------------------------------|
|-----------1---------------1----------------1------------------1--3-|
|-11-1-1-1--1-111--11-1-1-1-1--111--11-1-1-1-1---111--11-1-1-1--1--3-|
|-11-1-1-1--1-111--11-1-1-1-1--111--11-1-1-1-1---111--11-1-1-1--1--3-|
  PP P P P    PPP  PP P P P    PPP  pp p p P     ppp  pp p p p


|-------------------------------------------------------------|
|-------------------------------------------------------------|
|-------------------------------------------------------------|
|------------6s5--------------6s5-----------------------------|
|----55-5-5--6s5-555--55-5-5--6s5-555-------------------------|
|----55-5-5--6s5-555--55-5-5--6s5-555-------------------------| X2
     PP P P      PPP  PP P P      PPP   

|--------------------------------------------------------------------|
|--------------------------------------------------------------------|
|--------------------------------------------------------------------|
|-----------1---------------1----------------1------------------1--3-|
|-11-1-1-1--1-111--11-1-1-1-1--111--11-1-1-1-1---111--11-1-1-1--1--3-|
|-11-1-1-1--1-111--11-1-1-1-1--111--11-1-1-1-1---111--11-1-1-1--1--3-|
  PP P P P    PPP  PP P P P    PPP  pp p p P     ppp  pp p p p


|-------------------------------------------------------------|
|-------------------------------------------------------------|
|-------------------------------------------------------------|
|------------6s5--------------6s5-----------------------------|
|----55-5-5--6s5-555--55-5-5--6s5-555-------------------------|
|----55-5-5--6s5-555--55-5-5--6s5-555-------------------------| X2
     PP P P      PPP  PP P P      PPP   

|--------------------------------------------------------------------|
|--------------------------------------------------------------------|
|--------------------------------------------------------------------|
|-----------1---------------1----------------1------------------1--3-|
|-11-1-1-1--1-111--11-1-1-1-1--111--11-1-1-1-1---111--11-1-1-1--1--3-|
|-11-1-1-1--1-111--11-1-1-1-1--111--11-1-1-1-1---111--11-1-1-1--1--3-|
  PP P P P    PPP  PP P P P    PPP  pp p p P     ppp  pp p p p


|--------------------------------------------|
|--------------------------------------------|
|--------------------------------------------|
|----5-5-5-5-5-5-3--1~-----------------------|
|----5-5-5-5-5-5-3--1~-----------------------|
|----5-5-5-5-5-5-3--1~-----------------------|X4

|-----------------------------------------------|
|-----------------------------------------------|
|-----------------------------------------------|
|----5-5-5-5-5-5-3--1~--------------------------|
|----5-5-5-5-5-5-3--1~--1-111-11-111------------|
|----5-5-5-5-5-5-3--1~--1-111-11-111------------|X7
                        P PPP PP PPP

|--------------------------------------------|
|--------------------------------------------|
|--------------------------------------------|
|----5-5-5-5-5-5-3--0~-----------------------|
|----5-5-5-5-5-5-3--0~-----------------------|
|----5-5-5-5-5-5-3--0~-----------------------|
Добавлено: 16.07.2012
Другие материалы по этой песне:
  • Аккорды и текст

Страница создана 16.07.2012
http://primanota.ru/your-demise/feels-like-theres-something-dark-inside-chords.htm
Привет, Гость.
Предлагаем пройти революционный курс по гитаре.
Подарок от PrimaNota.Ru, забирай!