PrimaNota.ru - самый крупный в мире бесплатный архив песенных текстов, аккордов, табулатур и нот


Younger Brother - Psychic Gibbon - таба, видео

Регистрация Запомнить меня
Войти через:  Facebook Google Twitter Vk Yandex Mail.ru

Younger Brother - Psychic Gibbon - таба, видео

Печатать
Просмотров: 178
Уроки эстрадного вокала в Санкт-Петербурге
Авторы музыки: Simon Posford, Benji Vaughan

This is the riff that starts about 2 minutes into the song.

http://www.youtube.com/watch?v=d34hJwMhVto

(/) Slide Up  (\) Slide Down  (h) Hammer On  (p) Pull Off  (b) Bend (r) Release (v) Vibrato


E|--------------------------------------------------------------------------|
B|--8--8--8--6--6--6--5--5--5-----------8--8--8--6--6--6--5--5--5-----------|
G|-----------------------------5--5--5-----------------------------5--5--5--|
D|--------------------------------------------------------------------------|
A|--------------------------------------------------------------------------|
E|--------------------------------------------------------------------------|



E|------------------------------------------------------------------------------|
B|--------3h5--5--5--5--------------------------3h5--5--5--5--------------------|
G|--7--5----------------5--5--5--4--4--4--7--5----------------5--5--5--4--4--4--|
D|------------------------------------------------------------------------------|
A|------------------------------------------------------------------------------|
E|------------------------------------------------------------------------------|


While playing the riff you can also play the chords, These are: d5, f5, a5, a5
Or you can play: Dm, F, Am, Am
Добавлено: 15.09.2013
Другие материалы по этой песне:
  • Аккорды и текст

Страница создана 05.08.2013
http://primanota.ru/younger-brother/psychic-gibbon-chords.htm
Привет, Гость.
Предлагаем пройти революционный курс по гитаре.
Подарок от PrimaNota.Ru, забирай!