PrimaNota.ru - самый крупный в мире бесплатный архив песенных текстов, аккордов, табулатур и нот


Youngbloods - Smug - аккорды и текст, таба, видео

Регистрация Запомнить меня
Войти через:  Facebook Google Twitter Vk Yandex Mail.ru

Youngbloods - Smug - аккорды и текст, таба, видео

Печатать
Просмотров: 120
Smug
Youngbloods
Youngbloods - "Smug"

Intro: *


G
How can you ...
F
You're ...
C                **
For a r...

G
C you think ...
F
Don't you ...
C
Slippin' ...

       Am    E
It's a ...

Am
Ev'rything ...
E
Ev'rything ...
F
Ev'rything I ...
D
Don't you know ...
     C
That you have ...
    Bb  F             C 
And you  have ...


Love's gone without ...

Time simply melts ...

I can't ...

Nothing that you ....

(Instrumental break)

I can't s...

Nothing that you ....

Bb    F
You...yeah
Bb    F
You...yeah
Bb    F                  C     (F   C)
You...yeah, have ...


* Intro:

   Play twice

e:----8-----6-----5-----3-----3--|
B:-------------------------------|
G:-9-----7-----5-----3-----3-----|
D:-------------------------------|
A:-------------------------------|
E:-------------------------------|


** Fill

e:----------------------------------|-------------------------|
B:----------------------------------|-------------------------|
G:----------------------------------|----------5--------------|
D:----------5-----------------------|----5--7-----7--5--------|
A:-3-(5)/7-----7\5--3--5--3--(5)/7--|-7-----------------7--3--|
E:----------------------------------|-------------------------|



-------------------------------------------------------------------------
To find out more about the anon service, send mail to help@anon.penet.fi.
Due to the double-blind, any mail replies to this message will be anonymized,
and an anonymous id will be allocated automatically. You have been warned.
Please report any problems, inappropriate use etc. to admin@anon.penet.fi.

     
Добавлено: 02.06.2013
Другие материалы по этой песне:
  • Аккорды и текст

Страница создана 11.06.2012
http://primanota.ru/youngbloods/smug-chords.htm
Привет, Гость.
Предлагаем пройти революционный курс по гитаре.
Подарок от PrimaNota.Ru, забирай!