PrimaNota.ru - самый крупный в мире бесплатный архив песенных текстов, аккордов, табулатур и нот


Young The Giant - Art Exhibit - таба, видео

Регистрация Запомнить меня
Войти через:  Facebook Google Twitter Vk Yandex Mail.ru

Young The Giant - Art Exhibit - таба, видео

Печатать
Просмотров: 104
Новый альбом группы 'Черный Кузнец' по культовому сериалу 'Сверхъестественное'!
Авторы музыки: Payam Doostzadeh, François Comtois, Sameer Gadhia, Eric Cannata, Jacob Tilley

[Solo]
Time Signature: 3/4

e|--------------|-----|-------|-------------|---------|---------|---------------------|
B|--------------|-----|-------|-------------|---------|---------|---------------------|
G|--------------|-----|-------|-------------|---------|---------|---------------------|
D|--------------|-----|----7--|-------------|---------|---------|---------------------|
A|----3--5--3-5b|-----|-------|---5/3-------|---------|---------|---------------------|
E|--------------|-----|-------|----------5--|-----5-5-|---------|-5--7--5-3-----------|

e|-------------|------|-------|-------------|---------|----------------|--------------|
B|-------------|------|-------|-------------|---------|----------------|--------------|
G|-------------|------|-------|-------------|---------|----------------|--------------|
D|-------------|------|-------|-------------|-3/10--10|----10-10-10----|---10-10-10-10|
A|----3--5-7--5|------|----7--|---7/5----3--|---------|----------------|--------------|
E|-------------|------|-------|-------------|---------|----------------|--------------|


************************************

| b   Bend
| /   Slide up

************************************
Добавлено: 13.01.2018
Другие материалы по этой песне:
  • Аккорды и текст

Страница создана 13.01.2018
http://primanota.ru/young-the-giant/art-exhibit-chords.htm
Привет, Гость.
Предлагаем пройти революционный курс по гитаре.
Подарок от PrimaNota.Ru, забирай!