PrimaNota.ru - самый крупный в мире бесплатный архив песенных текстов, аккордов, табулатур и нот


Young Rising Sons - High - аккорды и текст, таба, видео

Регистрация Запомнить меня
Войти через:  Facebook Google Twitter Vk Yandex Mail.ru

Young Rising Sons - High - аккорды и текст, таба, видео

Печатать
Просмотров: 2017
High
Young Rising Sons
-------------------------------------------------------------------------------
                             HIGH - Young Rising Sons
-------------------------------------------------------------------------------
Tabbed by: Evan Swe
E-mail: evansweug@gmail.com

Tuning: Standard, Capo on 5

      D                               D
e|----2-------------------------------2--------------------------------------|
B|----3-------------------------------3--------------------------------------|
G|----2-------------------------------2--------------------------------------|
D|----0-0-0-0-0-0-0-0-0-0-0-0-0-0-0-0-0-0-0-0-0-0-0-0-0-0-0-0-0-0-0-0--------|
A|---------------------------------------------------------------------------|
E|---------------------------------------------------------------------------|

      G                               D
e|----3-------------------------------2--------------------------------------|
B|----3-------------------------------3--------------------------------------|
G|----0-0-0-0-0-0-0-0-0-0-0-0-0-0-0-0-2--------------------------------------|
D|----0-------------------------------0-0-0-0-0-0-0-0-0-0-0-0-0-0-0-0--------|
A|----2----------------------------------------------------------------------|
E|----3----------------------------------------------------------------------|

      Bm                              D
e|----2-------------------------------2--------------------------------------|
B|----3-3-3-3-3-3-3-3-3-3-3-3-3-3-3-3-3--------------------------------------|
G|----4-------------------------------2--------------------------------------|
D|----4-------------------------------0-0-0-0-0-0-0-0-0-0-0-0-0-0-0-0--------|
A|----2----------------------------------------------------------------------|
E|---------------------------------------------------------------------------|

Intro:

D D

Verse 1:

D
Inside my heart there's an emptiness
D
A heavy head on a hollow chest
G
Soft-spoken like a disease
D
Is the way to incomplete me
Bm
Can you shake this soul of mine?
D
Shoot my breath to the highest height
Bm
Tell your truth or trust a lie
D
Is this hello or is it goodbye?
G
Is this the low or is this the

Chorus:

D
High High High
                          Bm
Just let it go, enjoy the ride
                               G
Without the low, there ain't a high
A
High

Verse 2:

D
I found a ghost in the city light
D
Where all my wrongs have turned to right
G
Heart broken into pieces
D
It ain't a way that we should live
Bm
From the ground up, we will rise
D
I tip my hat to the highest height
Bm
Every day is a compromise
G
If this is low, I'm looking for

Chorus:

D
High High High
                          Bm
Just let it go, enjoy the ride
                               G
Without the low, there ain't a high
A
High

Interlude:

Bm                    G
'Cause all we need is love
                    D
But love needs sacrifice
                        A
But it's sure worth the price
              Bm
If you get it right
                      G
'Cause way up in this sky
                         D
There's no such thing as blind
                    A
So tell me, is this low, or is it the

Final Chorus:

D         D
High High High
                          Bm
Just let it go, enjoy the ride
                               G
Without the low, there ain't a high
A
High
D
High High High
                          Bm
Just let it go, enjoy the ride
                               G
Without the low, there ain't a high
A    D
High

e|----2----0----2----0--------2----0-----------------------------------------|
B|-------------------------------------0---------3---------------------------|
G|------------------------------------------2--------------------------------|
D|---------------------------------------------------------------------------|
A|---------------------------------------------------------------------------|
E|---------------------------------------------------------------------------|





Band Links:
Official Website - www.youngrisingsons.com
Facebook - www.facebook.com/youngrisingsons
Twitter - www.twitter.com/youngrisingsons
Label - Dirty Canvas Music 
Добавлено: 20.10.2014
Другие материалы по этой песне:
  • Аккорды и текст

Страница создана 20.10.2014
http://primanota.ru/young-rising-sons/high-chords.htm
Привет, Гость.
Предлагаем пройти революционный курс по гитаре.
Подарок от PrimaNota.Ru, забирай!