PrimaNota.ru - самый крупный в мире бесплатный архив песенных текстов, аккордов, табулатур и нот


Young Legionnaire - Killdozer - бас-таба, видео

Регистрация Запомнить меня
Войти через:  Facebook Google Twitter Vk Yandex Mail.ru

Young Legionnaire - Killdozer - бас-таба, видео

Печатать
Просмотров: 34
-------------------------------------------------------------------------------
                           Killdozer - Young Legionnaire
-------------------------------------------------------------------------------
Tabbed by: BassistBentley
Tuning: Standard

The notes are pretty simple, but the song is 11/8:

    1  e  +  a  2  e  +  a  3  e  +  
G|-----------------------------------|
D|-----------------------------------|
A|--0-----x--x--0-----x--x--0--0--x--| x8
E|-----------------------------------|

0:19
    1  e  +  a  2  e  +  a  3  e  +  
G|-----------------------------------|
D|--7-----------7-----------7--------|
A|--------0--0--------0--0-----0--0--|
E|-----------------------------------|

G|-----------------------------------|
D|--9-----------9-----------9--------|
A|--------0--0--------0--0-----0--0--|
E|-----------------------------------|

G|-----------------------------------|
D|--4-----------4-----------4--------|
A|--------0--0--------0--0-----0--0--|
E|-----------------------------------|

G|-----------------------------------|
D|--2-----------2-----------2--------|
A|--------0--0--------0--0-----0--0--|
E|-----------------------------------|

G|-----------------------------------|
D|--7-----------7-----------7--------|
A|--------0--0--------0--0-----0--0--|
E|-----------------------------------|

G|------------------------------------|
D|--11----------11----------------11--|
A|--------0--0--------0--0--0--0------|
E|------------------------------------|

G|-----------------------------------|
D|--6-----------6-----------6--------|
A|--------0--0--------0--0-----0--0--|
E|-----------------------------------|

G|-----------------------------------|
D|--2-----------2-----------2--------|
A|--------0--0--------0--0-----0--0--|
E|-----------------------------------|

0:36
G|-----------------------------------|
D|-----------------------------------|
A|--0-----x--x--0-----x--x--0--0--x--| x8
E|-----------------------------------|

0:53
G|-----------------------------------|
D|--7-----------7-----------7--------|
A|--------0--0--------0--0-----0--0--|
E|-----------------------------------|

G|-----------------------------------|
D|--9-----------9-----------9--------|
A|--------0--0--------0--0-----0--0--|
E|-----------------------------------|

G|-----------------------------------|
D|--4-----------4-----------4--------|
A|--------0--0--------0--0-----0--0--|
E|-----------------------------------|

G|-----------------------------------|
D|--2-----------2-----------2--------|
A|--------0--0--------0--0-----0--0--|
E|-----------------------------------|

G|-----------------------------------|
D|--7-----------7-----------7--------|
A|--------0--0--------0--0-----0--0--|
E|-----------------------------------|

G|------------------------------------|
D|--11----------11----------------11--|
A|--------0--0--------0--0--0--0------|
E|------------------------------------|

G|-----------------------------------|
D|--6-----------6-----------6--------|
A|--------0--0--------0--0-----0--0--|
E|-----------------------------------|

G|-----------------------------------|
D|--2-----------2-----------2--------|
A|--------0--0--------0--0-----0--0--|
E|-----------------------------------|

1:10
G|-----------------------------------|
D|-----------------------------------|
A|--0-----x--x--0-----x--x--0--0--x--| x8
E|-----------------------------------|

1:26
G|-----------------------------------|
D|--7-----7--7--7-----7--7--7--7--7--|
A|-----------------------------------|
E|-----------------------------------|

G|-----------------------------------|
D|--6-----6--6--6-----6--6--6--6--6--|
A|-----------------------------------|
E|-----------------------------------|

G|------------------------------------|
D|--11----11-11-11----11-11-11-11-11--|
A|------------------------------------|
E|------------------------------------|

G|-----------------------------------|
D|--6-----6--6--6-----6--6--6--6--6--|
A|-----------------------------------|
E|-----------------------------------|

G|-----------------------------------|
D|--7-----7--7--7-----7--7--7--7--7--|
A|-----------------------------------|
E|-----------------------------------|

G|-----------------------------------|
D|-----------------------------------|
A|--7-----7--7--7-----7--7--7--7--7--|
E|-----------------------------------|

G|-----------------------------------|
D|--9-----9--9--9-----9--9--9--9--9--|
A|-----------------------------------|
E|-----------------------------------|

G|-----------------------------------|
D|-----------------------------------|
A|--9-----9--9--9-----9--9--9--9--9--|
E|-----------------------------------|

1:43
G|-----------------------------------|
D|-----------------------------------|
A|--0-----x--x--0-----x--x--0--0--x--| x8
E|-----------------------------------|

2:00
G|-----------------------------------|
D|-----------------------------------|
A|--0--0--0--0--0--0--0--0--0--0--0--| x7
E|-----------------------------------|

2:17
G|-----------------------------------|
D|-----------------------------------|
A|--1-----x--x--1-----x--x--1--x--x--| x4
E|-----------------------------------|

G|---------|
D|---------|
A|--/5~~~--|
E|---------|

G|-----------------------------------|
D|-----------------------------------|
A|--1-----x--x--1-----x--x--1--x--x--| x4
E|-----------------------------------|

G|---------------|
D|---------------|
A|--/5~~~~~~~~~--|
E|---------------|

2:37
G|-----------------------------------|
D|-----------------------------------|
A|--0-----x--x--0-----x--x--0--0--x--| x8
E|-----------------------------------|

2:54
G|-----------------------------------|
D|--7-----7--7--7-----7--7--7--7--7--|
A|-----------------------------------|
E|-----------------------------------|

G|-----------------------------------|
D|--6-----6--6--6-----6--6--6--6--6--|
A|-----------------------------------|
E|-----------------------------------|

G|------------------------------------|
D|--11----11-11-11----11-11-11-11-11--|
A|------------------------------------|
E|------------------------------------|

G|-----------------------------------|
D|--6-----6--6--6-----6--6--6--6--6--|
A|-----------------------------------|
E|-----------------------------------|

G|-----------------------------------|
D|--7-----7--7--7-----7--7--7--7--7--|
A|-----------------------------------|
E|-----------------------------------|

G|-----------------------------------|
D|-----------------------------------|
A|--7-----7--7--7-----7--7--7--7--7--|
E|-----------------------------------|

G|-----------------------------------|
D|--9-----9--9--9-----9--9--9--9--9--|
A|-----------------------------------|
E|-----------------------------------|

G|-----------------------------------|
D|--------------------------------6--|
A|--9-----9--9--9-----9--9--7--9-----|
E|-----------------------------------|

3:11
G|-----------------------------------|
D|--7-----7--7--7-----7--7--7--7--7--|
A|-----------------------------------|
E|-----------------------------------|

G|-----------------------------------|
D|--6-----6--6--6-----6--6--6--6--6--|
A|-----------------------------------|
E|-----------------------------------|

G|------------------------------------|
D|--11----11-11-11----11-11-11-11-11--|
A|------------------------------------|
E|------------------------------------|

G|-----------------------------------|
D|--6-----6--6--6-----6--6-----4--6--|
A|--------------------------7--------|
E|-----------------------------------|

G|-----------------------------------|
D|--7-----7--7--7-----7--7--7--7--7--|
A|-----------------------------------|
E|-----------------------------------|

G|-----------------------------------|
D|-----------------------------------|
A|--7-----7--7--7-----7--7--7--7--7--|
E|-----------------------------------|

G|-----------------------------------|
D|--9-----9--9--9-----9--9--9--9--9--|
A|-----------------------------------|
E|-----------------------------------|

G|-----------------------------------|
D|--6-----6--6--6-----6--6--6--6--6--|
A|-----------------------------------|
E|-----------------------------------|

3:28 (played staccato) 
G|-----------------------------------|
D|-----------------------------------|
A|--0-----------0-----------0--0-----| x4
E|-----------------------------------|

3:36
G|-----------------------------------|
D|-----------------------------------|
A|--0-----x--x--0-----x--x--0--0--x--| x4
E|-----------------------------------|

G|----------|
D|----------|
A|--0\\\----| 
E|----------|


| /  slide up
| \  slide down
| ~  hold
| x  Mute note
===============================================================================
Добавлено: 06.04.2016
Другие материалы по этой песне:
  • Аккорды и текст

Страница создана 06.04.2016
http://primanota.ru/young-legionnaire/killdozer-chords.htm
Привет, Гость.
Предлагаем пройти революционный курс по гитаре.
Подарок от PrimaNota.Ru, забирай!