PrimaNota.ru - самый крупный в мире бесплатный архив песенных текстов, аккордов, табулатур и нот


Young Legionnaire - A Hole In The World - бас-таба, видео

Регистрация Запомнить меня
Войти через:  Facebook Google Twitter Vk Yandex Mail.ru

Young Legionnaire - A Hole In The World - бас-таба, видео

Печатать
Просмотров: 24
-------------------------------------------------------------------------------
                           A Hole In The World - Young Legionnaire
-------------------------------------------------------------------------------
Tabbed by: BassistBentley
Tuning: Standard

listen carefully for the rhythms, they're a bit tricky at times

the bass rests until
0:42
G|------------------------------------------|
D|--4-444-4--44-4--6--7-7-7-7-7--2-2-2-2-2--|
A|------------------------------------------| x2
E|------------------------------------------|

G|------------------------------------------|
D|------------------------------------------|
A|--5-555-5--55-5--4--0-0-0-0-0-------------|
E|-------------------------------0-0-0-0-0--|

G|------------------------------------------|
D|------------------------------------------|
A|--5-555-5--55-5--4--0-0-0-0-0--7-7-7-7-7--|
E|------------------------------------------|

G|------------------------------------------|
D|--4-444-4--44-4--6--7-7-7-7-7--2-2-2-2-2--|
A|------------------------------------------| x2
E|------------------------------------------|

G|------------------------------------------|
D|------------------------------------------|
A|--5-555-5--55-5--4--0-0-0-0-0--7-7-7-7-7--|
E|------------------------------------------|

G|------------------------------------------|
D|------------------------------------------|
A|--5-555-5--55-5--4--7-7-7-7-7-------------|
E|-------------------------------0-0-0-0-0--|

1:11
G|-----------------------------------------------------------------|
D|--------7~~~~~~~~~~~~~~~7~---------------------------------------|
A|--0-0-0----0-0-0--4h5-5---4-5-7----------------------------------|
E|--------------------------------2--22-2--22-2-2-2--22-2--22-2-2--|

G|---------------------------------------------------------------------|
D|---------------------------------------------------------------------|
A|--0-2--22-2--22-2-0-------------2-5--55-5--55-5-5-5--55-5--55-5-5/7--|
E|--------------------2--22-2--22--------------------------------------|

G|-----------------------------------------------------------------|
D|--------7~~~~~~~~~~~~~~~7~~~-------------------------------------|
A|--0-0-0----0-0-0--4h5-5-----5-7----------------------------------|
E|--------------------------------2--22-2--22-2-2-2--22-2--22-2-2--|

G|---------------------------------------------------------------------|
D|---------------------------------------------------------------------|
A|--0-2--22-2--22-2-0-------------2-5--55-5--55-5-5-5--55-5--55-5-5/7--|
E|--------------------2--22-2--22--------------------------------------|

1:38
G|-----------------------------------------------------------------|
D|--------7~~~~~~~~~~~~~~~7~~~-------------------------------------|
A|--0-0-0----0-0-0--4h5-5-----5-7----------------------------------|
E|--------------------------------2--22-2--22-2-2-2--22-2--22-2-2--|

G|---------------------------------------------------------------------|
D|---------------------------------------------------------------------|
A|--0-2--22-2--22-2-0-------------2-5--55-5--55-5-5-5--55-5--55-5-4/5--|
E|--------------------2--22-2--22--------------------------------------|

G|-----------------------------------------------------------------|
D|--------7~~~~~~~~~~~~~~~7~~~-------------------------------------|
A|--0-0-0----0-0-0--4h5-5-----5-7----------------------------------|
E|--------------------------------2--22-2--22-2-2-2--22-2--22-2-2--|

G|---------------------------------------------------------------------|
D|---------------------------------------------------------------------|
A|--0-2--22-2--22-2-0-------------2-5--55-5--55-5-5-5--55-5--55-5-5/7--|
E|--------------------2--22-2--22--------------------------------------|

2:07
G|-----------------------------------------------------------------|
D|--------7~~~~~~~~~~~~~~~7~~~-------------------------------------|
A|--0-0-0----0-0-0--4h5-5-----5-7---------------0-2--22-2--22-2-0--|
E|--------------------------------2--22-2--22-2--------------------|

G|---------------------------------------------------------------------|
D|---------------------------------------------------------------------|
A|--5--55-5--55-5-4-----------------0-2--22-2--22-2-2-2--22-2--22-2-2--|
E|------------------2--22-2--22-2-2------------------------------------|

2:20
G|------------------------------------------------------------4-------------4-------|
D|----7---7-----7---7----7----9~~~8~~~~~~~~~~~~~8~~~~~~~4-7-4---4-7-----7-------7---|
A|--5-5-5-5--55-5-5-5--5-5------------9~~~~~~~~~~~~~9~~~-------------44---4---4---4-| x2
E|--------------------------7~~~7~~~7~~~~~7~7~7~~~7~~~~~----------------------------|

G|-------------------------------------------------------------------------4---------------------|
D|-------------------------------------------------------------------4-7-4---4-7-----------------|
A|--5--55-5--55-5-5-5--55-5--55-5-5-4--44-4--44-4-4-4--44-4--44-4-4--------------4--44-4--44-4-4-|
E|-----------------------------------------------------------------------------------------------|

G|---------------------------------------------------------------------------------------------------|
D|------------------------------------7--------------------------------------------------------------|
A|--5--55-5--55-5-5-5--55-5--55-5-5-4---4-4--44-4-4-4--44-4--44-4-4----------------------------------|
E|-------------------------------------------------------------------2-2-2-2-2-2-2-2-0-0-0-0-0-0-0-0-|

pause for a measure
 
3:03
G|---------------------------------------------------|
D|---------------------------------------------------|
A|--5--55-5--55-5~-2-2-2-0---------------------------| x3
E|--------------------------2--22-2--22-2-2-5-5-5-5--|

G|--------------------------|
D|--------------------------|
A|--5--55-5--55-5~-2-2-2-0--|
E|--------------------------|

3:22
G|---------------------------------------------------|
D|---------------------------------------------------|
A|--------------------------5--55-5--55-5-0-2-2-2-0--| x2
E|--2--22-2--22-2-2-5-5-5-4--------------------------|

G|---------------------------------------------------|
D|---------------------------------------------------|
A|--------------------------5--55-5--55-5-0-2-2-2-0--| x2
E|--2--22-2--22-2-2-5-4-2-0--------------------------|

3:43
G|------------------------------------------|
D|--4-444-4--44-4--6--7-7-7-7-7--2-2-2-2-2--|
A|------------------------------------------| x2
E|------------------------------------------|

G|------------------------------------------|
D|------------------------------------------|
A|--5-555-5--55-5--4--0-0-0-0-0-------------|
E|-------------------------------0-0-0-0-0--|

G|------------------------------------------|
D|------------------------------------------|
A|--5-555-5--55-5--4--0-0-0-0-0--7-7-7-7-7--|
E|------------------------------------------|

G|------------------------------------------|
D|--4-444-4--44-4--6--7-7-7-7-7--2-2-2-2-2--|
A|------------------------------------------| x2
E|------------------------------------------|

G|------------------------------------------|
D|------------------------------------------|
A|--5-555-5--55-5--4--0-0-0-0-0--7-7-7-7-7--|
E|------------------------------------------|

G|------------------------------------------|
D|------------------------------------------|
A|--5-555-5--55-5--4--7-7-7-7-7-------------|
E|-------------------------------0-0-0-0-0--|


| /  slide up
| h  hammer-on
| ~  hold note
===============================================================================
Добавлено: 06.04.2016
Другие материалы по этой песне:

Страница создана 05.09.2013
http://primanota.ru/young-legionnaire/a-hole-in-the-world-chords.htm
Привет, Гость.
Предлагаем пройти революционный курс по гитаре.
Подарок от PrimaNota.Ru, забирай!